Aye Mere Humsafar Intro Tab | Qayamat Se Qayamat Tak

Aye Mere Humsafar Intro Tab

Learn to play  Aye Mere Humsafar Intro Tab.

  • Scale: G minor.

The song is on the G minor scale. 

 

E|----------5-3---------------5-3----|
B|--------3-----------------3--------|
G|------3-----------------3----------|
D|----5-----------------5------------|
A|--5-----------------5--------------|
E|-----------------------------------|


E|----------3-1----------------3-1---|
B|--------1------------------1-------|
G|------2------------------2---------|
D|----3------------------3-----------|
A|--3------------------3-------------|
E|-----------------------------------|


E|-10---------8-10--11-10-8----------
B|------10-11---------------11-10-11-
G|----8------------------------------
D|-----------------------------------
A|-----------------------------------
E|-----------------------------------


E|8----8---------------------------
B|-----------8-10-11------10-11-8--
G|-10----10----------8--8----------
D|---------------------------------
A|---------------------------------
E|---------------------------------

E|--------8-10--10-------------------|
B|8-10-11-------11-------------------|
G|-----------------------------------|
D|-----------------------------------|
A|-----------------------------------|
E|-----------------------------------|

Piano Part
E|----10-8-10----8-------------------|
B|--8---------11---10-11-------------|
G|-----------------------------------|
D|-----------------------------------|
A|-----------------------------------|
E|-----------------------------------|X4

Aye Mere Humsafar Chords
Aye Mere Humsafar Tab

Aye Mere Humsafar Track Info

This Post Has One Comment

Leave a Reply

Loading...