Bheegi Bheegi Intro Tabs – Neha Kakkar & Tony Kakkar

Learn to play “Bheegi Bheegi Intro Tabs” by Neha Kakkar & Tony Kakkar. Easy Intro Tabs.

Scale: Ebm

e|---------6--7-9-7-6-7-6--------------6-----------------------|
B|-----6-7----------------9-------6-9--------------------------|
G|--8------------------------6--8--------8-8-8-----------------|
D|-------------------------------------------------------------|
A|-------------------------------------------------------------|
E|-------------------------------------------------------------|

e|---------6--7-9-7-6-7-6--------------6-----------------------|
B|-----6-7----------------9-------6-9--------------------------|
G|--8------------------------6--8--------8-8-8-----------------|
D|-------------------------------------------------------------|
A|-------------------------------------------------------------|
E|-------------------------------------------------------------|

Bheegi Bheegi Intro Tabs (Capo)



Capo: 6th fret


e|---------0--1-3-1-0-1-0-------------0-0-----------------------|

B|-----0-1----------------3-------0-3-----2-2-2-----------------|
G|--2------------------------0--2-------------------------------|
D|--------------------------------------------------------------|
A|--------------------------------------------------------------|
E|--------------------------------------------------------------|

e|---------0--1-3-1-0-1-0-------------0-0-----------------------|
B|-----0-1----------------3-------0-3-----2-2-2-----------------|
G|--2------------------------0--2-------------------------------|
D|--------------------------------------------------------------|
A|--------------------------------------------------------------|
E|--------------------------------------------------------------|

Bheegi Bheegi Track Info

  • Song: Bheegi Bheegi
  • Singer: Neha Kakkar, Tony Kakkar
  • Lyrics: Tony Kakkar, Prince Dubey
  • Composer: Tony Kakkar
  • Music Label: T-Series

Leave a Comment

Your email address will not be published.


Scroll to Top