Shayad Tab by Arijit Singh | Love Aaj Kal

One of the most beautiful songs by Arijit Singh, composed by Pritam. The track is on the F minor key, to play this tab use a Cap0 on the 1st fret.

Shayad Tab

Track Info

  • Song: Shayad
  • Singer: Arijit Singh
  • Album: Love Aaj Kal
  • Lyricist: Irshad Kamil
  • Music: Pritam
  • Cast: Kartik Aaryan, Sara Ali Khan, Arushi Sharma
  • Music Label: Sony Music India

Key Info 

  • Tuning: Standard(E A D G B E)
  • Key: Fm
  • Capo: 1st fret
  • BPM: 136
[Intro]
 
e|---0---------------0--------------|
B|-----------3-----------------3----|
G|------0---------------0-----------|
D|--------------------------0-------|
A|---3-----3---------3--------------|
E|----------------------------------| 
 
e|--------0---------0-----------0---|
B|------1---------1-----------------|
G|----0---------0-------------------|
D|------------4--------------4------|
A|--0----------------------2--------|
E|-----------------------0----------|  
 
[Verse 1]
 
e|------------------------------------|
B|------------------------------------|
G|--4--7/9--7-7--5-4--5-4----------7--|
D|------------------------7-5--7-7----|
A|------------------------------------|
E|------------------------------------|
Shayad kabhi na keh sakoon main tumko
e|------------------------------------| B|------------------------------------| G|--4----4----4----4------------------| D|----7----7----7----7-5-4-5-5--------| A|-----------------------------7------| E|------------------------------------|
Kahe bina samajh lo tum shayad
e|------------------------------------|
B|------------------------------------|
G|--4--7/9--7-7--5-4--5-4----------7--|
D|------------------------7-5--7-7----|
A|------------------------------------|
E|------------------------------------|
Shayad mere khayal mein tum ik din
e|------------------------------------|
B|------------------------------------|
G|--4----4----4----4------------------|
D|----7----7----7----7-5-4-5-5--------|
A|-----------------------------7------|
E|------------------------------------|
Milo mujhe kahin pe ghum shaayad
[Chorus] e|----------------------------------| B|----------------------------------| G|--4-4/7-7-7\4--4-4-4--4/5-4-------| D|----------------------------7-----| A|----------------------------------| E|----------------------------------| Jo tum na ho.. rahenge hum nahin

e|----------------------------------| B|----------------------------------| G|-4-4/7-7-7\9-4--4-4-4-4/5-4-------| D|----------------------------7-5-7-| A|----------------------------------| E|----------------------------------| Jo tum na ho.. rahenge hum nahin
e|----------------------------------| B|----------------------------------| G|---------------------7-7-7--------| D|--7-5-7-5-------------------------| A|----------7p5-5----5--------------| E|----------------------------------| Na chahiye kuch tum se zyada
e|----------------------------------| B|----------------------------------| G|--5-5--5/7--5-4---5p4--2----------| D|----------------------------------| A|----------------------------------| E|----------------------------------| Tum se kam nahin

e|----------------------------------| B|----------------------------------| G|--4-4/7-7-7\4--4-4-4--4/5-4-------| D|----------------------------7-5-7-| A|----------------------------------| E|----------------------------------| Jo tum na ho.. toh hum bhi hum nahi

e|----------------------------------| B|-8-7-8----------------------------| G|--------7\9-4--4-4-4-4/5-4--------| D|---------------------------7-5-7--| A|----------------------------------| E|----------------------------------| Jo tum na ho.. toh hum bhi hum nahi
e|----------------------------------| B|----------------------------------| G|---------------------7-7-7--------| D|--7-5-7-5-------------------------| A|----------7p5-5----5--------------| E|----------------------------------| Na chahiye kuch tum se zyada
e|----------------------------------| B|----------------------------------| G|--5-5--5/7--5-4---5p4-------------| D|-----------------------7----------| A|----------------------------------| E|----------------------------------|

[Verse]

e|-------------------------------------|
B|------7-5---------------7-5----------|
G|--4-7------7-5\4-4--4-7------7-5\4-4-|
D|-------------------------------------|
A|-------------------------------------|
E|-------------------------------------|
Aankhon ko khaab dena
Khud hi sawaal karke

e|-------------------------------------|
B|------5-5/8--7-5----5----------------|
G|--4-7------------7----7-5-4-4/7------|
D|-------------------------------------|
A|-------------------------------------|
E|-------------------------------------|

Khud hi jawaab dena teri taraf se


e|-------------------------------------|
B|------7-5---------------7-5----------|
G|--4-7------7-5\4-4--4-7------7-5\4-4-|
D|-------------------------------------|
A|-------------------------------------|
E|-------------------------------------|

Bin kaam kaam karna
Jaana kahin ho chaahe

e|-------------------------------------|
B|------5-5/8--7-5----5----------------|
G|--4-7------------7----7-5-4-4/7------|
D|-------------------------------------|
A|-------------------------------------|
E|-------------------------------------|

Har baar hi guzarna teri taraf se
Repeat Verse 1. Then chorus

================
| / Slide-up | p Pull-off ================

Leave a Comment

Your email address will not be published.


Scroll to Top