Black Summer Tab by Red Hot Chili Peppers Ver. 2

The song was released On the 4th of February 2022, produced by Rick Rubin. To play this tab tune the guitar half step down as ( Eb Ab Db Gb Bb eb )

Black Summer Tab

Track Info

Key info

  • Key: Ebm
  • Tuning: ( Eb Ab Db Gb Bb eb )
[Intro]
 
Eb|--------------------------------------------------------------------------|
Bb|----------------8h10-8--------------------------------8/10\8------8/10\8-8|
Gb|-----9----------------------7h9-7-7-----------9----9--9/11\9------9/11\9-9|
Db|-9---9---9-9-9---------9-9--------7h9--9---9--9----9----------------------|
Ab|-7---7---------------------------------7---------7------------------------|
Eb|-------------------------------------------------------------0-0----------|
    Ebm                                   Ebm 
 
[Verse 1]
 
Eb|---------------------------------------------------------------------------|
Bb|-------8-----8--------------------------7----------------8-----8-----------|
Gb|-9-----9-----9----------4-----4----7----7----6-6---9-----9-----9-----------|
Db|-9---9-9---9-9----5-----5-----5----7--7-7----7-7---9---9-9---9-9-----------|
Ab|-7---7-7---7-7----5---5-5---5-5----5--5-5----7-7---7---7-7---7-7-----------|
Eb|------------------3---3-3---3-3--------------5-5---------------------------|
    Ebm              Gb               Db        Ab    Ebm
 
Eb|---------------------------------------------------------------------------|
Bb|------------------8-----8----7----12-------------12--7-----7-----7---------|
Gb|-------5-----5----9-----9----7----12------12--12-12--7---7-7---7-7---------|
Db|-7-----7-----7----9---9-9----7----12---12-12--12-12--7---7-7---7-7---------|
Ab|-7---7-7---7-7----7---7-7----5----10---10-10--10-10--5---5-5---5-5---------|
Eb|-5---5-5---5-5-------------------------------------------------------------|
    Abm              Ebm        Db   Gb                 Db
 
Eb|---------------------------------------------------------------------------|
Bb|-------8-----8-------------------------7----------------8-----8------------|
Gb|-9-----9-----9----------4-----4----7---7----6--6--9-----9-----9------------|
Db|-9---9-9---9-9----5-----5-----5----7---7----7--7--9---9-9---9-9------------|
Ab|-7---7-7---7-7----5---5-5---5-5----5---5----7--7--7---7-7---7-7------------|
Eb|------------------3---3-3---3-3-------------5--5---------------------------|
    Ebm              Gb.              Db       Ab    Ebm
 
Eb|---------------------------------------------------------------------------|
Bb|------------------8-----8----7----12-------------12--7-----7-----7---------|
Gb|-------5-----5----9-----9----7----12------12--12-12--7---7-7---7-7---------|
Db|-7-----7-----7----9---9-9----7----12---12-12--12-12--7---7-7---7-7---------|
Ab|-7---7-7---7-7----7---7-7----5----10---10-10--10-10--5---5-5---5-5---------|
Eb|-5---5-5---5-5-------------------------------------------------------------|
    Abm              Ebm        Db   Gb                 Db
 
 
[Break]
 
Eb|-10----10------------------------------------------------------------------|
Bb|-10h12-10--10--10--8---8---------------------------------------------------|
Gb|-----------9h11-9--7h9-7-----5--------5---------------7h9-7---------9------|
Db|-------------------------9\--5--------5-----------5----------7h9----9------|
Ab|-----------------------------3---5/7--------------5-----------------7------|
Eb|-----------------------------------------3---5/7---------------------------|
    Db                          Cb          Gb           Db        Eb
 
Eb|------------------------------------------------------7--------------------|
Bb|------------------------------------------------------9--------------------|
Gb|-----12--12h14-12----------14----14h16p14-------9-9---9--------------------|
Db|------------------------------14----------------9-9---9--------------------|
Ab|-/14---------------14/16-------------------16\--7-7---7--------------------|
Eb|---------------------------------------------------------------------------|
    Gb                Ab                           Eb
 

BLACK SUMMER TAB
BLACK SUMMER BASS TAB

[Verse 2 ]
Ending
Eb|---------------------------------------------------------------------------| Bb|------------------8-----8----7----12--------12-12-12-12-12-----------------| Gb|-------5-----5----9-----9----7----12--------12-12-12-12-12-----------------| Db|-7-----7-----7----9---9-9----7----12----12--12-12-12-12-12-----------------| Ab|-7---7-7---7-7----7---7-7----5----10----10--10-10-12-12-12-----------------| Eb|-5---5-5---5-5-------------------------------------------------------------| Abm Ebm Db Gb Eb|---------------------------------------------------------------------------| Bb|-12---12-12---12-12-12---12-12-12---12-12----------------------------------| Gb|-13---13-13---13-13-13---13-13-13---13-13----------------------------------| Db|-14---14-14---14-14-14---14-14-14---14-14----------------------------------| Ab|-11---11-11---11-11-11---11-11-11---11-11----------------------------------| Eb|---------------------------------------------------------------------------| Eb/G [Chorus] Eb|---------------------------------------------------------------------------| Bb|-5---5------------7-7---9---9-9--12-12-12---14-14-14---9-9---9---9-9-------| Gb|-5---5---4---4----7-7---9---9-9--12-12-12---14-14-14---9-9---9---9-9-------| Db|-5---5---5---5----7-7---9---9-9--12-12-12---14-14-14---9-9---9---9-9-------| Ab|-3---3---5---5----5-5---7---7-7--10-10-10---12-12-12---7-7---7---7-7-------| Eb|---------3---3-------------------------------------------------------------| Cb Gb Db Eb Gb Ab Eb Eb|---------------------------------------------------------------------------| Bb|-5---5------------7-7---9---9-9--7---7-------------9-9---9---9-9-----------| Gb|-5---5---4---4----7-7---9---9-9--7---7----6---6----9-9---9---9-9-----------| Db|-5---5---5---5----7-7---9---9-9--7---7----7---7----9-9---9---9-9-----------| Ab|-3---3---5---5----5-5---7---7-7--5---5----7---7----7-7---7---7-7-----------| Eb|---------3---3----------------------------5---5----------------------------| Cb Gb Db Eb Db Ab Eb [Solo] Eb|---------------------------------------------------------------------------| Bb|---------------------------------------------7b8-7-5-----------------------| Gb|-----------------7/9--------------------------------------7--9-------------| Db|---------5--7/9------7/9---9---9-8-7---7\5-----------7/9-------9\7p5-------| Ab|-7--7-7---------------------------------------------------------------7--7-| Eb|---------------------------------------------------------------------------| Ebm Gb Db Ab Ebm Eb|---------------------------------------------------------------------10----| Bb|----------------5-------------------------------------------------10-------| Gb|-------------7------------------------------------------------/11----------| Db|-7---5--7b9--------b7p5--------4---5---5-5-5--7b9-7--7---7-7---------------| Ab|------------------------7---7----------------------------------------------| Eb|---------------------------------------------------------------------------| Abm Ebm F Gb Db Eb|------------------------------15-------------------------14b15-14-12-------| Bb|----------------------------------15---------------------------------------| Gb|-------------12-14-12-14b16-----------16br14-14---14-12--------------14b16-| Db|-14---14-14----------------------------------------------------------------| Ab|---------------------------------------------------------------------------| Eb|---------------------------------------------------------------------------| Ebm Gb Db Ab Ebm Eb|-12---------------------------------------12-------------------------------| Bb|--------------------------------------15-----------------------------------| Gb|-----16br14p12---------14---12-14b16---------16br14p13-----------11--12--12| Db|----------------14-14-----------------------------------14---14------------| Ab|---------------------------------------------------------------------------| Eb|---------------------------------------------------------------------------| Abm Ebm F Eb|------------------------------15-----------------------------12----12-16b18| Bb|-----------12-----12-15----15--------15-------------12----12-----12--------| Gb|-12-12-12------12-------12--------12----13-13-13-13----13------------------| Db|---------------------------------------------------------------------------| Ab|---------------------------------------------------------------------------| Eb|---------------------------------------------------------------------------| Gb Eb/G [Outro] Eb|---------------------------------------------------------------------------| Bb|---------------------------------------------------------------------------| Gb|---9-----9------9----7-----7-----7---7------7---7-9------------------------| Db|-9---9-9----9-9----9---9-9---9-9---7----7-7---7----------------------------| Ab|---------------------------------------------------------------------------| Eb|---------------------------------------------------------------------------| Eb|---------------------------------------------------------------------------| Bb|---------------------------------------------------------------------------| Gb|---9-----9------9----9-----9---7-9----9-----9---9--------------------------| Db|-9---9-9----9-9----7---7-7---7------9---9-9---9----------------------------| Ab|---------------------------------------------------------------------------| Eb|---------------------------------------------------------------------------| Eb|-10-10-10-10-10-10-10-10--9--9--9--9--9--9--9--7---------------------------| Bb|-10-10-10-10-10-10-10-10--10-10-10-10-10-10-`10----------------------------| Gb|---------------------------------------------------------------------------| Db|---------------------------------------------------------------------------| Ab|---------------------------------------------------------------------------| Eb|---------------------------------------------------------------------------| Eb|---------------------------------------------------------------------------| Bb|----------------------------------------8-7--------------------------------| Gb|---9------9-----9---7----7-----7---7--------7-9----------------------------| Db|-9---9-9----9-9---9---9-9--9-9---7---7-7-----------------------------------| Ab|---------------------------------------------------------------------------| Eb|---------------------------------------------------------------------------| Eb|---------------------------------------------------------------------------| Bb|---------------------------------------------------------------------------| Gb|---9-----9-----9---9-----9---7-9---9-----9---9-----------------------------| Db|-9---9-9---9-9---7---7-7---7-----9---9-9---9-------------------------------| Ab|---------------------------------------------------------------------------| Eb|---------------------------------------------------------------------------| Eb|-10-10-10-10-10-10-10-10-10-10-10-10-10-10-10-10---------------------------| Bb|-10-10-10-10-10-10-10-10-10-10-10-10-10-10-10-10---------------------------| Gb|---------------------------------------------------------------------------| Db|---------------------------------------------------------------------------| Ab|---------------------------------------------------------------------------| Eb|---------------------------------------------------------------------------| Eb|-9--9--9--9--9--9--9--9--9--9--9--9--9--9--9--9----------------------------| Bb|-10-10-10-10-10-10-10-10-10-10-10-10-10-10-10-10--12-----------------------| Gb|--------------------------------------------------12-----------------------| Db|---------------------------------------------------------------------------| Ab|---------------------------------------------------------------------------| Eb|---------------------------------------------------------------------------

BLACK SUMMER TAB
BLACK SUMMER BASS TAB


|
===================
| / Slide up
| \ Slide down
| h Hammer-on
| p Pull-off
| b Bend
| r Release
| br Bend release
| ~ Vibrato
===================

Leave a Comment

Your email address will not be published.


Scroll to Top