C Major Scale Guitar Tabs | How To Play C Major Scale

  • Post category:Scales
  • Post comments:1 Comment
  • Post last modified:June 13, 2021

C Major Scale Guitar Tabs

In this lesson, we learn to play the C Major scale guitar Tabs.
This Scale consists of these natural notes C D E F G A B C

Open Position

E------------------------------------------------0--1--3--5--7--[8]-|
B-------------------------------------0--[1]--3---------------------|
G-------------------------------0--2--------------------------------|
D----------------------0--2--3--------------------------------------|
A-----------0--2--[3]-----------------------------------------------|
E--0--1--3----------------------------------------------------------|
E F G A B [C] D E F G A B [C] D E F G A B [C]
In This position fingers and the frets are same for the zero
fret use open strings


2nd Postion
E---------------------------------------3--5--7--[8]-----|
B------------------------------3--5--6-------------------|
G-------------------2--4--[5]----------------------------|
D----------2--3--5---------------------------------------|
A--[3]--5------------------------------------------------|
E--------------------------------------------------------|
[C] D  E  F  G  A  B  [C]   D E  F  G  A  B  [C]



3rd Position
E------------------------------------------5--7--[8]--|
B---------------------------------5--6--8-------------|
G----------------------4--[5]--7----------------------|
D-------------3--5--7---------------------------------|
A--[3]--5--7------------------------------------------|
E-----------------------------------------------------|
[C]  D E  F G A   B [C]  D   E F G    A  B [C]


4th Position
E-------------------------------------------------7--[8]-|
B------------------------------------------8--10---------|
G--------------------------------7--9--10----------------|
D---------------------7--9--[10]-------------------------|
A-----------7--8--10-------------------------------------|
E--[8]--10-----------------------------------------------|
[C]   D  E  F G A  B [C]   D  E F G  A  B [C]



Leave a Reply

Loading...