Easy: Chura Liya Hai Intro Tab | Yaadon Ki Baraat

Learn to play Chura Liya Hai Intro Tab by Asha Bhosle and Md Rafi. from the film Yaadon Ki Baraat.

Chura Liya Hai Tumne Jo Dil Ko Intro Tab
Chura Liya Hai Tumne Jo Dil Ko Intro Tab

This intro part is the most famous guitar part in the Hindi song. So hope that you love to play the lesson. The guitar part in the second stanza is also very nice.

Chura Liya Hai Intro Details

  • Song: Chura Liya Hai
  • Scale: Am

Intro Tab

#to play this tab you can hold open Aminor chord.

E|-------0------------0--------------| B|---------1-0----------1-0----------| G|----2--------2---2--------2---2----| D|--2------------2------------3------| A|-----------------------------------| E|-----------------------------------| E|--------------0--------------0-----------| B|--3-0-----------1-0--------0---0---------| G|------2-----2-------2-1---1------1---1-2-| D|--------3-0-------------2----------2-----| A|-----------------------------------------| E|-----------------------------------------|
You love to play
CHURA LIYA HAI CHORDS

Stanza 2

Guitar Piece/ Guitar Interlude Lesson

E|-----------------------------------| 
B|-----5-----------------------------| 
G|--2-----2--2--2--4-2---------------| 
D|---------------------5-------------| 
A|-----------------------------------| 
E|-----------------------------------|

E|-----------------------------------| 
B|-----3-----------------------------| 
G|-------------4--5-4-2--------------| 
D|--5-----5--5-----------------------| 
A|-----------------------------------| 
E|-----------------------------------|

You love to play
CHURA LIYA HAI CHORDS
CHURA LIYA HAI TAB

    Video Tutorial

    Leave a Reply

    Loading...