D Major Scale Tabs on Guitar @ Guitartwitt

D Major Scale Tabs

Learn to play D major scale Tabs on different Position. To play any solo on guitar easily, it is most important to familiar to your scale. Each and every scale has multiple positions to play on guitar.

D Major Scale Tab
D Major Scale Tab

Notes of D major Scale

D major scale has these following notes:-

 
1 2 3 4 5 6 7 8
D E F# / Gb G A B C# / Eb D

D Major Tab starting with 4th string open.

     D  E  F#  G  A  B  C# D  C# B  A  G  F# E  D
e|---------------------------------------------------| B|-------------------0--2--3--2--0-------------------| G|-------------0--2-----------------2--0-------------| D|----0--2--3-----------------------------3--2--0----| A|---------------------------------------------------| E|---------------------------------------------------|

On 5th fret 5th String.

 

     D   E  F# G  A  B  C# D  C# B  A  G  F#  E D
e|---------------------------------------------------|

B|----------------------2--3--2----------------------|
G|----------------2--4-----------4--2----------------|
D|-------2--4--5-----------------------5--4--2-------|
A|----5-----------------------------------------5----|
E|---------------------------------------------------|
e|---------------------------------------------------|
B|---------------------------------------------------|
G|-------------------4--6--7--6--4-------------------|
D|----------4--5--7-----------------7--5--4----------|
A|----5--7-----------------------------------7--5----|
E|---------------------------------------------------|

 

On 3rd String 7th fret.

  • Starting with third finger, 
e|----------------5--7--9--10--9--7--5---------------|
B|-------5--7--8------------------------8--7--5------|
G|----7------------------------------------------7---|
D|---------------------------------------------------|
A|---------------------------------------------------|
E|---------------------------------------------------|
  • Starting with 1st finger
e|--------------------7--9--10--9--7------------------|
B|----------7--8--10------------------10--8--7--------|
G|----7--9--------------------------------------9--7--|
D|----------------------------------------------------|
A|----------------------------------------------------|
E|----------------------------------------------------|

D Major Tab Two Octave, On 6th String, 10th Fret

e|-----------------------------------------------------9--10--|
B|---------------------------------------------10--12---------|
G|----------------------------------9--11--12-----------------|
D|-----------------------9--11--12----------------------------|
A|------------9--10--12---------------------------------------|
E|----10--12--------------------------------------------------|
e|----9-------------------------------------------------------|
B|-------12--10-----------------------------------------------|
G|---------------12--11--10-----------------------------------|
D|---------------------------12--11--10-----------------------|
A|---------------------------------------12--10--9------------|
E|--------------------------------------------------12--10----|

Learn to play C Major Scale Tabs

Leave a Reply

Loading...