Drip Theme tab by Misc Computer Games | Among Us

Drip Theme Tab

Track Info

e|-----1-2-1-----------------------------|
B|-1-4-------4-1-----3-1-----------------|
G|-----------------3---------------------|
D|---------------------------------------|
A|---------------------------3-----------|
E|-------------------------3-------------|

e|---------------------------------------|
B|-1--4--6---7-------7-6-4--7-6-4--------|
G|---------------------------------------|
D|---------------------------------------|
A|---------------------------------------|
E|---------------------------------------|

Leave a Reply

Loading...