MAIN TUMHARA GUITAR TAB – Dil Bechara | AR Rahman | Sushant Singh

This is a beautiful composition of AR Rahman for Sushant Singh Rajput & Sanjana Sanghi‘s latest film Dil Bechara. Hriday Gattani & Jonita Gandhi sung this song and its lyrics are penned by Amitabh Bhattacharya.

The song is in C major scale. If you are a beginner, you must know how to play the C major scale.

Main Tumhara Guitar Tabs

Learn to play
Main Tumhara Chords

e--3-5-3-5/7----5-5-----------------------|
B-------------------6\5-5-----------------|
G-----------------------------------------|
D-----------------------------------------|
A-----------------------------------------|
E-----------------------------------------| x2
Tum na huye mere to kya


e----------------------------------------|
B--5-8-5/6-5--5-8-5/6-5--5-6-5-3-3-3-----|
G----------------------------------------|
D----------------------------------------|
A----------------------------------------|
E----------------------------------------|
Main tumhara main tumhara main tumhara raha


e---------------------------3-3-3--------|
B--3-5-3/5-3-3-5-3/5-3--5-6--------------|
G----------------------------------------|
D----------------------------------------|
A----------------------------------------|
E----------------------------------------|
Mere Chanda main tumhara sitara raha



e--3-5-3-5/7----5-5----------------------|
B-------------------6\5-5----------------|
G----------------------------------------|
D----------------------------------------|
A----------------------------------------|
E----------------------------------------|
Rista raha bas rait ka


e----------------------------------------|
B--5-8-5/6-5--5-8-5/6-5--6-5-3-3-3-------|
G----------------------------------------|
D----------------------------------------|
A----------------------------------------|
E----------------------------------------|
Ae samandar main tumhara kinara raha

e---------------------------3-3-3--------|
B--3-5-3/5-3-3-5-3/5-3--5-6--------------|
G----------------------------------------|
D----------------------------------------|
A----------------------------------------|
E----------------------------------------|
Main tumhara main tumhara tumhara raha


e--3-5-3-5/7----5-5---------------------|
B-------------------6\5-5---------------|
G---------------------------------------|
D---------------------------------------|
A---------------------------------------|
E---------------------------------------|
Tum na huye mere to kya...
e--6-6-6-6/8-6-6-6--6-8\6-6-8/10--------|
B---------------------------------------|
G---------------------------------------|
D---------------------------------------|
A---------------------------------------|
E---------------------------------------|
Tu hi pehli guzarish hasrat bhi tu


e--8--6-6\3-----------------------------|
B---------------------------------------|
G---------------------------------------|
D---------------------------------------|
A---------------------------------------|
E---------------------------------------|
Aa..khri


e--6-6-6-6/8-6-6-6----------------------|
B---------------------------------------|
G---------------------------------------|
D---------------------------------------|
A---------------------------------------|
E---------------------------------------|
Maahi mere naseeh

e--6-13-10\8-10-8\6-8/10-8--6-6\3-6-----|
B---------------------------------------|
G---------------------------------------|
D---------------------------------------|
A---------------------------------------|
E---------------------------------------|
Marzi bata.a.a kya teri


e----------------------------------------|
B--5-8-5/6-5--5-8-5/6-5--5-6-5-3-3-3-----|
G----------------------------------------|
D----------------------------------------|
A----------------------------------------|
E----------------------------------------|
Main tumhara main tumhara main tumhara raha

e---------------------------3-3-3--------|
B--3-5-3/5-3-3-5-3/5-3--5-6--------------|
G----------------------------------------|
D----------------------------------------|
A----------------------------------------|
E----------------------------------------|
Mere Chanda main tumhara sitara raha




e----------------------------------------|
B----------------------------------------|
G--7-5-6--7--7-5-6--7--7-5---------------|
D--------------------------7-------------|
A----------------------------------------|
E----------------------------------------|
Naye jaado ke mahine ki tarah

e----------------------------------------|
B--5-----5--5-----5----------------------|
G----7-5------7-5-------4-5--------------|
D---------------------7------------------|
A----------------------------------------|
E----------------------------------------|
Aur tum ho pasmina ki tarah


e------------------------5---------------|
B--8-6-5--8--8-6----8--8------8----------|
G----------------7---------7-------------|
D----------------------------------------|
A----------------------------------------|
E----------------------------------------|
Main deewaro ki tarah hoon tum jaise

e----------------------------------------|
B--8-6----8----5-6----5------------------|
G------7-----7-----------7--5--4---------|
D---------------------------------7--5---|
A----------------------------------------|
E----------------------------------------|
ho bageecha main bagicha jo tum ne seencha


e--3-5-3-5/7----5-5-----------------------|
B-------------------6\5-5-----------------|
G-----------------------------------------|
D-----------------------------------------|
A-----------------------------------------|
E-----------------------------------------| x2
Tum na huye mere to kya


e----------------------------------------|
B--5-8-5/6-5--5-8-5/6-5--5-6-5-3-3-3-----|
G----------------------------------------|
D----------------------------------------|
A----------------------------------------|
E----------------------------------------|
Main tumhara main tumhara tumhara raha


e---------------------------3-3-3--------|
B--3-5-3/5-3-3-5-3/5-3--5-6--------------|
G----------------------------------------|
D----------------------------------------|
A----------------------------------------|
E----------------------------------------|
Mere Chanda main tumhara sitara raha



e--3-5-3-5/7----5-5----------------------|
B-------------------6\5-5----------------|
G----------------------------------------|
D----------------------------------------|
A----------------------------------------|
E----------------------------------------|
Rista raha bas rait ka


e----------------------------------------|
B--8-8-5/6-5--5-8-5/6-5--6-5-3-3-3-------|
G----------------------------------------|
D----------------------------------------|
A----------------------------------------|
E----------------------------------------|
Ae samandar main tumhara kinara raha

e---------------------------3-3-3--------|
B--3-5-3/5-3-3-5-3/5-3--5-6--------------|
G----------------------------------------|
D----------------------------------------|
A----------------------------------------|
E----------------------------------------|
Main tumhara main tumhara tumhara raha

e--3-5-3-5/7----5-5-----------------------|
B-------------------6\5-5-----------------|
G-----------------------------------------|
D-----------------------------------------|
A-----------------------------------------|
E-----------------------------------------|
Tum na huye mere to kya


Main Tumhara Chords

Learn to Play
MAIN TUMHARA CHORDS – Jonita Gandhi & Hriday Gattani
KHULKE JEENE KA CHORDS – Arijit Singh, A.R.Rahman
TAARE GINN CHORDS – Mohit Chauhan & Shreya Ghoshal
DIL BECHARA CHORDS – AR RAHMAN

Track Info

This Post Has 7 Comments

  1. Crook

    in the first line the last two 3 3 in string two are going odd , please tell

    1. C_corp01
      C_corp01

      Thanks for the mistake you noticed. It is correct now.

  2. Ayush S>

    Can I have the full tabs?

  3. Anonymous

    thanks

  4. Anonymous

    i need the full song
    where do i get please tell me

    1. C_corp01
      C_corp01

      Thanks for the interest you’ve shown. Soon we update the song

Leave a Reply

Loading...