Euphoria – Elliots Song tab by Dominic Fike

On the 27th of February 2022, the track was released from the album Euphoria.

Elliots Song tab

Track Info

Song: Elliots Song
Artist: Dominic Fike
Written by Labrinth & Zendaya
Album: Euphoria
Released Date: 27 February 2

Key Info

  • Tuning: Standard (E A D G B E)
  • Key: E
  • BPM: 93
[Verse 1]
 
E|--------------------------|--------------------------|
B|--------------------------|--------------------------|
G|--------------------------|--------4-----------4-----|
D|--------2-----------4-----|-----6-----6-----6-----6--|
A|-----4-----4-----6-----6--|--7-----------7-----------|
E|--5-----------7-----------|--------------------------|
    I've got no place
 
 
E|--------------------------|--------------------------|
B|--------------------------|--------------------------|
G|--------------------------|--------4-----------4-----|
D|--------2-----------4-----|-----6-----6-----6-----6--|
A|-----4-----4-----6-----6--|--7-----------7-----------|
E|--5-----------7-----------|--------------------------|
    Buildin' you a rocket up to outer space
 
 
E|--------------------------|--------------------------|
B|--------------------------|--------------------------|
G|--------------------------|--------4-----------4-----|
D|--------2-----------4-----|-----6-----6-----6-----6--|
A|-----4-----4-----6-----6--|--7-----------7-----------|
E|--5-----------7-----------|--------------------------|
    I watch you fade
 
 
E|--------------------------|--------------------------|
B|--------------------------|--------------------------|
G|--------------------------|--------4-----------4-----|
D|--------2-----------4-----|-----6-----6-----6-----6--|
A|-----4-----4-----6-----6--|--7-----------7-----------|
E|--5-----------7-----------|--------------------------|
    Keeping the lights on in this forsaken place
 
 
 
[Chorus]
 
E|--------------------------|--------------------------|
B|--------------------------|--------------------------|
G|--------------------------|--------4-----------4-----|
D|--------2-----------4-----|-----6-----6-----6-----6--|
A|-----4-----4-----6-----6--|--7-----------7-----------|
E|--5-----------7-----------|--------------------------|
  Little star
 
 
E|--------------------------|--------------------------|
B|--------------------------|--------------------------|
G|--------------------------|--------4-----------4-----|
D|--------2-----------4-----|-----6-----6-----6-----6--|
A|-----4-----4-----6-----6--|--7-----------7-----------|
E|--5-----------7-----------|--------------------------|
  Feels like you fell right on my head
 
 
E|--------------------------|--------------------------|
B|--------------------------|--------------------------|
G|--------------------------|--------------------------|
D|--------2-----------4-----|--------------------------|
A|-----4-----4-----6-----6--|--7~~~~~~~~~~~~-----------|
E|--5-----------7-----------|--9~~~~~~~~~~~~-----------|
   Gave you away to the wind
 
 
E|--------------------------|--------------------------|
B|--------------------------|--------------------------|
G|--------------------------|--------4-----------4-----|
D|--------2-----------4-----|-----6-----6-----6-----6--|
A|-----4-----4-----6-----6--|--7-----------7-----------|
E|--5-----------7-----------|--------------------------|
  I hope it was worth it in the end
 
 
E|--------------------------|--------------------------|
B|--------------------------|--------------------------|
G|--------------------------|--------4-----------4-----|
D|--------2-----------4-----|-----6-----6-----6-----6--|
A|-----4-----4-----6-----6--|--7-----------7-----------|
E|--5-----------7-----------|--------------------------|
  You and my guitar
 
 
E|--------------------------|--------------------------|
B|--------------------------|--------------------------|
G|--------------------------|--------4-----------4-----|
D|--------2-----------4-----|-----6-----6-----6-----6--|
A|-----4-----4-----6-----6--|--7-----------7-----------|
E|--5-----------7-----------|--------------------------|
  I think you may be my only friend
 
 
E|--------------------------|--------------------------|
B|--------------------------|--------------------------|
G|--------------------------|--------4-----------4-----|
D|--------2-----------4-----|-----6-----6-----6-----6--|
A|-----4-----4-----6-----6--|--7-----------7-----------|
E|--5-----------7-----------|--------------------------|
   I gave it all to see you shine again
 
 
E|--------------------------|--------------------------|
B|--------------------------|--------------------------|
G|--------------------------|--------4-----------4-----|
D|--------2-----------4-----|-----6-----6-----6-----6--|
A|-----4-----4-----6-----6--|--7-----------7-----------|
E|--5-----------7-----------|--------------------------|
  I hope it was worth it in the end
 
 
EUPHORIA - ELLIOTS SONG CHORDS   

[Verse 2]
E|--------------------------|--------------------------| B|--------------------------|--------------------------| G|--------------------------|--------4-----------4-----| D|--------2-----------4-----|-----6-----6-----6-----6--| A|-----4-----4-----6-----6--|--7-----------7-----------| E|--5-----------7-----------|--------------------------| Us against the world E|--------------------------|--------------------------| B|--------------------------|--------------------------| G|--------------------------|--------4-----------4-----| D|--------2-----------4-----|-----6-----6-----6-----6--| A|-----4-----4-----6-----6--|--7-----------7-----------| E|--5-----------7-----------|--------------------------| Just a couple sinner's makin' fun of hell E|--------------------------|--------------------------| B|--------------------------|--------------------------| G|--------------------------|--------4-----------4-----| D|--------2-----------4-----|-----6-----6-----6-----6--| A|-----4-----4-----6-----6--|--7-----------7-----------| E|--5-----------7-----------|--------------------------| If I keep you here E|--------------------------|--------------------------| B|--------------------------|--------------------------| G|--------------------------|--------4-----------4-----| D|--------2-----------4-----|-----6-----6-----6-----6--| A|-----4-----4-----6-----6--|--7-----------7-----------| E|--5-----------7-----------|--------------------------| I'll only be doing this for myself [Chorus] E|--------------------------|--------------------------| B|--------------------------|--------------------------| G|--------------------------|--------4-----------4-----| D|--------2-----------4-----|-----6-----6-----6-----6--| A|-----4-----4-----6-----6--|--7-----------7-----------| E|--5-----------7-----------|--------------------------| Little star E|--------------------------|--------------------------| B|--------------------------|--------------------------| G|--------------------------|--------4-----------4-----| D|--------2-----------4-----|-----6-----6-----6-----6--| A|-----4-----4-----6-----6--|--7-----------7-----------| E|--5-----------7-----------|--------------------------| Feels like you fell right on my head E|--------------------------|--------------------------| B|--------------------------|--------------------------| G|--------------------------|--------------------------| D|--------2-----------4-----|--------------------------| A|-----4-----4-----6-----6--|--7~~~~~~~~~~~~-----------| E|--5-----------7-----------|--9~~~~~~~~~~~~-----------| Gave you away to the wind E|--------------------------|--------------------------| B|--------------------------|--------------------------| G|--------------------------|--------4-----------4-----| D|--------2-----------4-----|-----6-----6-----6-----6--| A|-----4-----4-----6-----6--|--7-----------7-----------| E|--5-----------7-----------|--------------------------| I hope it was worth it in the end E|--------------------------|--------------------------| B|--------------------------|--------------------------| G|--------------------------|--------4-----------4-----| D|--------2-----------4-----|-----6-----6-----6-----6--| A|-----4-----4-----6-----6--|--7-----------7-----------| E|--5-----------7-----------|--------------------------| Yеah, I hope so E|--------------------------|--------------------------| B|--------------------------|--------------------------| G|--------------------------|--------4-----------4-----| D|--------2-----------4-----|-----6-----6-----6-----6--| A|-----4-----4-----6-----6--|--7-----------7-----------| E|--5-----------7-----------|--------------------------| I think you may be my only friend E|--------------------------|--------------------------| B|--------------------------|--------------------------| G|--------------------------|--------4-----------4-----| D|--------2-----------4-----|-----6-----6-----6-----6--| A|-----4-----4-----6-----6--|--7-----------7-----------| E|--5-----------7-----------|--------------------------| I gave it all to see you shine again E|--------------------------|--------------------------| B|--------------------------|--------------------------| G|--------------------------|--------4-----------4-----| D|--------2-----------4-----|-----6-----6-----6-----6--| A|-----4-----4-----6-----6--|--7-----------7-----------| E|--5-----------7-----------|--------------------------| I hope it was worth it in the end [Bridge] E|---------------------------|---------------------------| B|--------10----------10-----|--------12----------12-----| G|-----11----11----11----11--|-----13----13----13----13--| D|--11----------11-----------|--11----------11-----------| A|---------------------------|---------------------------| E|---------------------------|---------------------------| I know this thing is broken E|---------------------------|---------------------------| B|--------10----------10-----|--------12----------12-----| G|-----11----11----11----11--|-----13----13----13----13--| D|--11----------11-----------|--11----------11-----------| A|---------------------------|---------------------------| E|---------------------------|---------------------------| So I leave my door wide open E|---------------------------|---------------------------| B|--------10----------10-----|--------12----------12-----| G|-----11----11----11----11--|-----13----13----13----13--| D|--11----------11-----------|--11----------11-----------| A|---------------------------|---------------------------| E|---------------------------|---------------------------| Been some time since we've spoken E|---------------------------|---------------------------| B|--------10----------10-----|---------------------------| G|-----11----11----11----11--|------8--------------------| D|--11----------11-----------|----9----------------------| A|---------------------------|--9------------------------| E|---------------------------|---------------------------| One day we'll meet again E|---------------------------|---------------------------| B|--------10----------10-----|--------12----------12-----| G|-----11----11----11----11--|-----13----13----13----13--| D|--11----------11-----------|--11----------11-----------| A|---------------------------|---------------------------| E|---------------------------|---------------------------| Some distance when you're older E|---------------------------|---------------------------| B|--------10----------10-----|--------12----------12-----| G|-----11----11----11----11--|-----13----13----13----13--| D|--11----------11-----------|--11----------11-----------| A|---------------------------|---------------------------| E|---------------------------|---------------------------| You'll come laying on my shoulder E|---------------------------|---------------------------| B|--------10----------10-----|--------12----------12-----| G|-----11----11----11----11--|-----13----13----13----13--| D|--11----------11-----------|--11----------11-----------| A|---------------------------|---------------------------| E|---------------------------|---------------------------| Tell me that storm is over E|---------------------------|---------------------------| B|--------10----------10-----|---------------------------| G|-----11----11----11----11--|------8--------------------| D|--11----------11-----------|----9----------------------| A|---------------------------|--9------------------------| E|---------------------------|---------------------------| That day we meet again [Chorus] E|--------------------------|--------------------------| B|--------------------------|--------------------------| G|--------------------------|--------4-----------4-----| D|--------2-----------4-----|-----6-----6-----6-----6--| A|-----4-----4-----6-----6--|--7-----------7-----------| E|--5-----------7-----------|--------------------------| Little star E|--------------------------|--------------------------| B|--------------------------|--------------------------| G|--------------------------|--------4-----------4-----| D|--------2-----------4-----|-----6-----6-----6-----6--| A|-----4-----4-----6-----6--|--7-----------7-----------| E|--5-----------7-----------|--------------------------| Feels like you fell right on my head E|--------------------------|--------------------------| B|--------------------------|--------------------------| G|--------------------------|--------------------------| D|--------2-----------4-----|--------------------------| A|-----4-----4-----6-----6--|--7~~~~~~~~~~~~-----------| E|--5-----------7-----------|--9~~~~~~~~~~~~-----------| Gave you away to the wind E|--------------------------|--------------------------| B|--------------------------|--------------------------| G|--------------------------|--------4-----------4-----| D|--------2-----------4-----|-----6-----6-----6-----6--| A|-----4-----4-----6-----6--|--7-----------7-----------| E|--5-----------7-----------|--------------------------| I hope it was worth it in the end E|--------------------------|--------------------------| B|--------------------------|--------------------------| G|--------------------------|--------4-----------4-----| D|--------2-----------4-----|-----6-----6-----6-----6--| A|-----4-----4-----6-----6--|--7-----------7-----------| E|--5-----------7-----------|--------------------------| You and my guitar E|--------------------------|--------------------------| B|--------------------------|--------------------------| G|--------------------------|--------4-----------4-----| D|--------2-----------4-----|-----6-----6-----6-----6--| A|-----4-----4-----6-----6--|--7-----------7-----------| E|--5-----------7-----------|--------------------------| I think you may be my only friend E|--------------------------|--------------------------| B|--------------------------|--------------------------| G|--------------------------|--------4-----------4-----| D|--------2-----------4-----|-----6-----6-----6-----6--| A|-----4-----4-----6-----6--|--7-----------7-----------| E|--5-----------7-----------|--------------------------| I gave you away (Mh-mhhm-hmm) E|--------------------------|--------------------------| B|--------------------------|--------------------------| G|--------------------------|--------4-----------4-----| D|--------2-----------4-----|-----6-----6-----6-----6--| A|-----4-----4-----6-----6--|--7-----------7-----------| E|--5-----------7-----------|--------------------------| I hope it was worth it in the end ============== | ~ Vibrato ==============

EUPHORIA - ELLIOTS SONG CHORDS

Leave a Comment

Your email address will not be published.


Scroll to Top