Fade Into You tab by Mazzy Star

Fade Into You Tab

Track Info

[Intro]
 
   A      E       Bm
e|--7/9-------------------|
B|--------7/9-----9-\7----|
G|------------------------|
D|------------------------|
A|------------------------|
E|------------------------|
 
 
[Solo]
 
   A                E             Bm
e|-----9-----------------4-----4--4-\2---2/4-4-4-\2-----0-|
B|-----------10-------------5-------------------------3---|
G|-7/9----------9---2/4-----------------------------------|
D|--------------------------------------------------------|
A|--------------------------------------------------------|
E|--------------------------------------------------------|
4-\2 before silde 1st note shoud ring
A E Bm e|-----9----------------4-----4-\2----2/4-4-4-\2---2---| B|----------10-------------5---------------------------| G|-7/9---------9----2/4--------------------------------| D|-----------------------------------------------------| A|-----------------------------------------------------| E|-----------------------------------------------------| [Chorus] A E Bm D e|------------------------------------------| B|----------7/9-----9-/7---------7-----7----| G|--7/9----------------------5/7---7-7---7--| D|------------------------------------------| A|------------------------------------------| E|------------------------------------------| A E Bm A E e|--5/9---9-----------------------------------------------| B|----------10-------9-------9-\7---7/9-9-9-\7---7-7-7-\5-| G|--------------7/9------9--------------------------------| D|-------------------------9------------------------------| A|--------------------------------------------------------| E|--------------------------------------------------------|

(9-\7)- before silde 1st note shoud ring.
**************** | \ Slide down
| / Slide up
****************

 

Leave a Reply

Loading...