Happy Birthday Guitar Tab

Happy Birhtday Guitar Tab

Happy Birthday Guitar Tab
Happy Birthday Guitar Tab

when its time for a birthday celebration” for our loved ones.We try many ways to bring a true happiness in their face. So why not music, the best way to bring a real happiness. So pick up your guitar and greet them with this Guitar Tab.
Presenting Happy Birthday Guitar Tab.
If you are a beginner guitar player you can still play this song. Single strings tabs are also written in this article.

Here we are going to play this on D major Scale on 7th fret. So,We can see the note D is on is on the 7th fret of G strings.

Verse 1


E|-----------------------------------|
B|------5-----8--7-------------------|
G|--7-7----7-------------------------|
D|-----------------------------------|
A|-----------------------------------|
E|-----------------------------------|
Happy birthday to you

E|------------5----------------------|
B|------5--------8-------------------|
G|--7-7----7-------------------------|
D|-----------------------------------|
A|-----------------------------------|
E|-----------------------------------|
Happy birthday to you

E|-------10--7-----------------------|
B|--------------8--7--9--------------|
G|--7-7------------------------------|
D|-----------------------------------|
A|-----------------------------------|
E|-----------------------------------|
Happy birthday dear..(name)

E|--8-8-7----5-----------------------|
B|--------8-----8--------------------|
G|-----------------------------------|
D|-----------------------------------|
A|-----------------------------------|
E|-----------------------------------|
Happy birthday to you

verse 2

If you are familiar with C major scale at open position, you can play this easily in this position As we know this is on D major scale so, here the note D is on the open D string or 4th string.

 
E|-----------------------------------|
B|-----------------------------------|
G|------------0----------------------|
D|--0-0-2--0-----4-------------------|
A|-----------------------------------|
E|-----------------------------------|
Happy birthday to you

E|-----------------------------------|
B|-----------------------------------|
G|------------0----------------------|
D|--0-0-2--0-----4-------------------|
A|-----------------------------------|
E|-----------------------------------|
Happy birthday to you


E|-----------------------------------|
B|------3--0-------------------------|
G|------------0----------------------|
D|--0-0----------4--2----------------|
A|-----------------------------------|
E|-----------------------------------|
Happy birthday dear (name)

E|-----------------------------------|
B|--1-1-0----------------------------|
G|---------0--2--0-------------------|
D|-----------------------------------|
A|-----------------------------------|
E|-----------------------------------|
Happy birthday to you

Happy Birthday Guitar Tab for Beginner

This is for beginner guitar player. At the beginning when your fingers are not synchronize or prepared it is tough to play on multiple strings. So, here you can play this on 2nd strings

 
E|-----------------------------------|
B|--3-3-5--3--8--7-------------------|
G|-----------------------------------|
D|-----------------------------------|
A|-----------------------------------|
E|-----------------------------------|
Happy birthday to you

E|-----------------------------------|
B|--3-3-5--3--10--8------------------|
G|-----------------------------------|
D|-----------------------------------|
A|-----------------------------------|
E|-----------------------------------|
Happy birthday to you

E|-----------------------------------|
B|--3-3-15--12--8--7--5--------------|
G|-----------------------------------|
D|-----------------------------------|
A|-----------------------------------|
E|-----------------------------------|
Happy birthday dear (name)


E|-----------------------------------|
B|--13-13-12--8--10--8---------------|
G|-----------------------------------|
D|-----------------------------------|
A|-----------------------------------|
E|-----------------------------------|
Happy birthday to you

You may like
Learn to play A5 Chord
Learn to Play perfect C Chord in Multiple Position

Leave a Reply

Loading...