ILLENIUM, Jon Bellion – Good Things Fall Apart Chords

Good Things Fall Apart Chords by ILLENIUM, Jon Bellion

Learn to play Good Things Fall Apart Chords by ILLENIUM, Jon Bellion.

Good Things Fall Apart Chords Info

  • Key: D
  • Chords: D, G, A
  • Suggested Strumming: DUDU D DUD D D

Track Info

Good Things Fall Apart Chords
Good Things Fall Apart Chords
  • Song: Good Things Fall Apart
  • Artist: Illenium & Jon Bellion
  • Produced by: ILLENIUM & Jason Evigan
  • Written By: ILLENIUM, JHart, Jason Evigan,
    Jon Bellion & Sarah Hudson
  • Album: Ascend

Intro Tab

e|--------------------------------|------------------------------------------|
B|--------------------------------|------------------------------------------|
G|----5---5\4---2/4---4\2---0h2p0-|------5---5\4--7---2---0------------------|
D|-5------------------------------|--5---------------------------0-----------|
A|--------------------------------|---------------------------7------5-------|
E|--------------------------------|------------------------------------------|
                                     
e|-3-------------------------2---2---2---2-----------------------------------|
B|-3----3---3----------------3---3---3---3-----------------------------------|
G|-0--------------0---0------2---2---2---2-----------------------------------|
D|-0------0---------0--------------------------------------------------------|
A|-2-------------------------------------------------------------------------|
E|-3-------------------------------------------------------------------------|

[Verse 1]

Did I [D]say something wrong? Did you hear what
I was thinking?
Did I [D]talk way too long when I told you all my feelings that [G] night?
Is it [D]you? Is it me? Did you find somebody better?
Someone [D]who isn’t me, ’cause I know that I was never your[G] type
Never really your type

[Pre-Chorus]

[D]Overthinking’s got me drinking
[G]Messing with my [A]head, whoa

[Chorus]

[D] Tell me what you hate about me
[D] Whatever it is, I’m sorry
[G] Yeah, yeah, yeah, yeah, yeah, yeah
[D] I know I can be dramatic
[D] But everybody said we had it
[G] Yeah, yeah, yeah, yeah, yeah, yeah

[Post-Chorus]

I’m [A]coming to terms with a broken heart
I [G]guess that sometimes good things fall apart [D]

[Verse 2]

When you [D]said it was real, guess I really did believe you
Did you [D]fake how you feel when we parked down by the river that[G] night? That night?
That night when we [D]fogged up the windows in your best friend’s car
‘Cause we [D]couldn’t leave the windows down in December [G]
Whoa 0h-oh-oh-oh

[Chorus]

[D] Tell me what you hate about me
[D] Whatever it is, I’m sor[G]ry
[G]Yeah, yeah, yeah, yeah, yeah, yeah
[D] I know I can be dramatic
[D] But everybody said we had [G]it
[G] Yeah, yeah, yeah, [G] yeah, yeah, yeah

[Post-Chorus]

I’m [A]coming to terms with a broken heart
I [G]guess that sometimes good things fall apart

[Instrumental Bridge]

[D] [D] [D] [D]

[Pre-Chorus]

[D]Overthinking’s got me drinking
Messing with my he[G]ad, oh

[Chorus]

[D] Tell me what you hate about me (Tell me)
[D] Whatever it is, I’m sorry (Oh, I’m sorry)
[G] Yeah, yeah, yeah (Oh, I’m sorry), yeah, yeah, yeah
[D] I know I can be dramatic (I know I can be)
[D] But everybody said we had it
[G] Yeah, yeah, yeah,yeah, yeah, yeah

[Post-Chorus]

I’m [A]coming to terms with a broken heart
I [G]guess that sometimes good things fall apart

Outro

[D] [D]

You love to play
Kabir Singh – Tujhe Kitna Chahne Lage Chords
Kabir Singh – Bekhayali Guitar Chords
Aladdin Speechless Chords 
Summer of 69 Chords
Shallow Chords

 

Leave a Reply

Loading...