Aladdin – Speechless Guitar Tab by Naomi Scott

Aladdin – Speechless Guitar Tab by Naomi Scott

Presenting Speechless Guitar Tab by Naomi Scott from Aladdin

Track Info

Speechless Guitar Tab
Speechless Guitar Tab
  • Song: Speechless 
  • Artist: Naomi Scott
  • Lyricist: Benj Pasek & Justin Paul
  • Composer: Alan Menken
  • Produced by: Marc Platt, Guy Ritchie,
  • Mitchell Leib, Matt Sullivan & Alan Menken
  • Album: Aladdin (Original Motion Picture
    Soundtrack)

Aladdin Speechless Chords 


e|-----------------------------------|
B|-----------------------------------|
G|--------7--6-----------------------|
D|----6-7------9-7-6-7/9-7-----------|
A|--9--------------------------------|
E|-----------------------------------|
 Here comes a wave meant to wash me away


e|-----------------------------------|
B|-----------------------------------|
G|-----------------------------------|
D|----6-7-6-6-7/9-9-7----------------|
A|--9--------------------------------|
E|-----------------------------------|
A tide that is taking me under


e|-----------------------------------|
B|-----------------------------------|
G|--------7--6-----------------------|
D|----6-7------9-7-6-7/9-7-----------|
A|--9--------------------------------|
E|-----------------------------------|
Swallowed in sand, left with nothing to say

 

e|-----------------------------------|
B|-----------------------------------|
G|--------9--6-----6-----------------|
D|----6-7------9-7---9---------------|
A|--9--------------------------------|
E|-----------------------------------|

My voice drowned out in the thunder


e|-----------------------------------|
B|-----------------------------------|
G|----6-9-9/11--9-11--9---6--9-------|
D|--9-------------------9------------|
A|-----------------------------------|
E|-----------------------------------|
But I won’t try And I won’t start to crumble


e|-----------------------------------|
B|----------------7----7-10-9--------|
G|--6-9-6-9/11--9--9-7---------------|
D|-----------------------------------|
A|-----------------------------------|
E|-----------------------------------|
Whenever they try
To shut me or cut me down

 


e|--------------9--7-9-7-------7-----|
B|--9-10-9\7-7-----------10----------|
G|--------------------------9--------|
D|-----------------------------------|
A|-----------------------------------|
E|-----------------------------------|
I won’t be silenced You can’t keep me quiet


e|-----7-----------------------------|
B|--10---10-7---10-------------------|
G|------------9----------------------|
D|-----------------------------------|
A|-----------------------------------|
E|-----------------------------------|
Won’t tremble when you try it

 


e|-----------------------------------|
B|--10-9-7--10-9-7-10--9--7----------|
G|-----------------------------------|
D|-----------------------------------|
A|-----------------------------------|
E|-----------------------------------|
All I know is I won’t go speechless


e|-------------9--7-9-7-------7------|
B|--9-10-9\7------------10-----------|
G|--------------------------9--------|
D|-----------------------------------|
A|-----------------------------------|
E|-----------------------------------|
‘Cause I’ll breathe
When they try to suffocate me


e|-----7-----------------------------|
B|--10---10-7---10-------------------|
G|------------9----------------------|
D|-----------------------------------|
A|-----------------------------------|
E|-----------------------------------|
Don’t you underestimate me


e|-----------------------------------|
B|--10-9-7--10-9-7-10--9--7----------|
G|-----------------------------------|
D|-----------------------------------|
A|-----------------------------------|
E|-----------------------------------|
‘Cause I know that I won’t go
speechless

 

You love to play

Aladdin Speechless Chords 
Kabir Singh – Tujhe Kitna Chahne Lage Chords
Kabir Singh – Bekhayali Guitar Chords
Summer of 69 Chords
Shallow Chords

Leave a Reply

Loading...