Leonard Cohen – Hallelujah Tabs

Hallelujah Tabs by Leonard Cohen

Learn to play “Hallelujah Tabs” by Leonard Cohen.

Hallelujah Tabs Leonard Cohen
Hallelujah Tabs

Hallelujah Tabs info

Tune: Standard [ E A D G B E ]
Key: C
Chords: C, Am, F, G, Em

Song Credit

Song: Hallelujah
Lyrics: Leonard Cohen
Album: Various Positions
Language: English

E|---------0-----|-------0-----|-------0-----|-------0-----|
B|-------1---1---|-----1---1---|-----1---1---|-----1---1---|
G|-----0-------0-|---2-------2-|---0-------0-|---2-------2-|
D|---------------|-------------|-------------|-------------|
A|---3-----------|-0-----------|-3-----------|-0-----------|
E|---------------|-------------|-------------|-------------|

[Verses]

 

E|---------0-----|-------0-----|-------0-----|-------0-----|
B|-------1---1---|-----1---1---|-----1---1---|-----1---1---|
G|-----0-------0-|---2-------2-|---0-------0-|---2-------2-|
D|---------------|-------------|-------------|-------------|
A|---3-----------|-0-----------|-3-----------|-0-----------|
E|---------------|-------------|-------------|-------------|

E|---------1-----|-------3-----|-------0-----|-------1-----|
B|-------1---1---|-----0---0---|-----1---1---|-----0---0---|
G|-----2-------2-|---0-------0-|---0-------0-|---0-------0-|
D|---------------|-------------|-------------|-------------|
A|---------------|-------------|-3-----------|-------------|
E|---1-----------|-3-----------|-------------|-3-----------|

E|---------0-----|-------------|-------0-----|-------1-----|
B|-------1---1---|-----1-----3-|-----1---1---|-----1---1---|
G|-----0-------0-|---2-----4---|---2-------2-|---2-------2-|
D|---------------|-------------|-------------|-------------|
A|---3-----------|-------------|-0-----------|-------------|
E|---------------|-1-----3-----|-------------|-1-----------|

E|---------3-----|-------0-----|-------0-----|-------------|
B|-------0---0---|-----0---0---|-----1---1---|-------------|
G|-----0-------0-|---1-------1-|---2-------2-|-------------|
D|---------------|-------------|-------------|-------------|
A|---------------|-------------|-0-----------|-0-----------|
E|---3-----------|-0-----------|-------------|-------------|

E|---------1-----|-------1-----|-------0-----|-------0-----|
B|-------1---1---|-----1---1---|-----1---1---|-----1---1---|
G|-----2-------2-|---2-------2-|---2-------2-|---2-------2-|
D|---------------|-------------|-------------|-------------|
A|---------------|-------------|-0-----------|-0-----------|
E|---1-----------|-1-----------|-------------|-------------|

E|---------1-----|-------1-----|-------0-----|-------1-----|
B|-------1---1---|-----1---1---|-----1---1---|-----0---0---|
G|-----2-------2-|---2-------2-|---0-------0-|---0-------0-|
D|---------------|-------------|-------------|-------------|
A|---------------|-------------|-3-----------|-------------|
E|---1-----------|-1-----------|-------------|-3-----------|

e|---------0-----|-------1-----|
B|-------1---1---|-----0---0---|
G|-----0-------0-|---0-------0-|
D|---------------|-------------|
A|---3-----------|-------------|
E|---------------|-3-----------|

Intro

[C] [Am] [C] [Am]

Verse 1

[C]hear there was a
[Am]secret chord
That [C] David played and it
[Am]pleased the lord
But [F]you don’t really [G]care for music,
[C]Do you?[G]

Well it goes like the fourth, the fifth
The [Am]minor fall and the[F]major lift
The [G]baffled king [Em]
composing halle[Am]lujah

Learn to play Hallelujah Chords

Leave a Reply

Loading...