Purano Sei Diner Kotha Tab by Hemanta Mukhopadhyay

Purano Sei Diner Kotha is a very beautiful Rabindra Sangeet sang by legend Hemanta Mukhopadhyay.

Purano Sei Diner Kotha Tab

Track Info

Scale: C Major

To play this song easily must see
How to play C Major Scale

E|--------------------------------------|
B|----------5--3----3-5-----------------|
G|--5-5\4-5-----5-5---------------------|
D|--------------------------------------|
A|--------------------------------------|
E|--------------------------------------|
Purano sei diner kotha

E|-------3--5/8--8-8--5-3---------------|
B|------5-----------------5-------------|
G|--5-5--------------------5------------|
D|--------------------------------------|
A|--------------------------------------|
E|--------------------------------------|
Bhulbi kire hai o sei chokher dekha

E|--------------------------------------|
B|3---3-5-----------3-------------------|
G|--5----------2-4-5--5-----------------|
D|---------5-5--------------------------|
A|--------------------------------------|
E|--------------------------------------|
Praner kotha se ki bhola jai

Purano sei diner kotha
Bhulbi kire hai o sei chokher dekha
Praner kotha se ki bhola jai



E|--3--3--------------------------------|
B|------5-----3--3-5--------------------|
G|--------5-5---5-----------------------|
D|--------------------------------------|
A|--------------------------------------|
E|--------------------------------------|
Aai arektibar aai re sakha

E|--------3--5/8--8-8--5-3---------------|
B|--5----5-----------------5-------------|
G|---5-5--------------------5------------|
D|---------------------------------------|
A|---------------------------------------|
E|---------------------------------------|
Praner majhe aai mora sukher dhukher

E|--------------------------------------|
B|3---3-5-----------3-------------------|
G|--5----------2-4-5--5-----------------|
D|---------5-5--------------------------|
A|--------------------------------------|
E|--------------------------------------|
Kotha kobo Pran jurabe aai

Aai arektibar aai re sakha 
Praner majhe aai mora sukher dhukher 
Kotha kobo Pran jurabe aai

Purano sei diner kotha
Bhulbi kire hai o sei chokher dekha
Praner kotha se ki bhola jai


E|--------------------------------------|

B|--------------5--3---3-5--------------|
G|--5-4-5-5-4-5------5------------------|
D|--------------------------------------|
A|--------------------------------------|
E|--------------------------------------|
Mora bhorer belai phul tulechi

E|--------------------------------------|
B|3-----3-3-5-6-5-----------------------|
G|--5-5---------------------------------|
D|--------------------------------------|
A|--------------------------------------|
E|--------------------------------------|
Tulechi dolai

E|8-8-8-5-3-----------------------------|
B|-----------5----3-5-----------3-------|
G|--------------5----------2-4-5--5-----|
D|---------------------5-5--------------|
A|--------------------------------------|
E|--------------------------------------|

Baajiye bansi Gaan geyechi bokuler dolai


Mora bhorer belai phul tulechi
Tulechi dolai 
Baajiye bansi Gaan geyechi
Bokuler dolai

Aai majhe holo chara chari
Gelemti kothai

Abar dekha jodi holo sakha 
Gaaner  majhe aai

Leave a Comment

Your email address will not be published.


Scroll to Top