Neil Levang – Ghost Riders In The Sky tab

Ghost Riders In The Sky tab

Track Info

******************* 
p Pull-off
h Hummer-on
~ Vibrato
X Mute
PM Palm Mute

*******************


[Intro]
e|------------------------------------| B|------------------------------------| G|------------------------------------| D|------------------------------------| A|--0-0-0-0–-2-3-3-3-3---0------------| E|-0----------------------3-3-3-3-0-3-|

e|----------------------------------------|
B|----------------------------------------|
G|----------------------------------------|
D|--------------------------0-2-2-2-2---2-|
A|----0-0-0-0--2-3-3-3-3---------------3--|
E|---0------------------------------------|
e|------------------------------------| B|------------------------------------| G|----2-2--2p0------------------------| D|0h2----------2-2--0h2--2-2----------| A|---------------------------3-0------| E|------------------------------------|

e|----------------------------------------|
B|----------------------------------------|
G|----------------------------------------|
D|----------------------------------------|
A|-----------0-3-3-3-3---0h3p0--3-0-------|
E|-0-1-1-1-1-------------------3----------|

PM------------------------------------| e|------------------------------------| B|------------------------------------| G|------------------------------------| D|------------------------------------| A|7----7----7----7----7----7----7----7| E|5----0----5----0----5----0----5----0| [Verse] e|------------------------------------| B|------------------------------------| G|------------------------------------| D|------------------------------------| A|--0-0-0-0–-2-3-3-3-3---0------------| E|-0----------------------3-3-3-3-0-3-|

e|----------------------------------------|
B|----------------------------------------|
G|----------------------------------------|
D|--------------------------0-2-2-2-2---2-|
A|----0-0-0-0--2-3-3-3-3---------------3--|
E|---0------------------------------------|
e|------------------------------------| B|------------------------------------| G|----2-2--2p0------------------------| D|0h2----------2-2--0h2--2-2----------| A|---------------------------3-0------| E|------------------------------------|

e|----------------------------------------|
B|----------------------------------------|
G|----------------------------------------|
D|----------------------------------------|
A|-----------0-3-3-3-3---0h3p0--3-0-------|
E|-0-1-1-1-1-------------------3----------|
PM------------------------------------| e|------------------------------------| B|------------------------------------| G|------------------------------------| D|------------------------------------| A|7----7----7----7----7----7----7----7| E|5----0----5----0----5----0----5----0| [Chorus] e|---0--0--0-------------------0~-----| B|---5--5--5---8~---10-10-10---5~-----| G|-------------9~---------------------| D|------------------------------------| A|------------------------------------| E|------------------------------------| e|------------------------------------| B|------------------------------------| G|------------------------------------| D|------------------------------------| A|-----------3--3-0-------------------| E|---0-1-1-1--------------------------| PM------------------------------------| e|------------------------------------| B|------------------------------------| G|------------------------------------| D|------------------------------------| A|7----7----7----7----7----7----7----7| E|5----0----5----0----5----0----5----0| [Verse] PM------------------------------------| e|------------------------------------| B|------------------------------------| G|------------------------------------| D|5----5----5----5----5----5----5----5| A|3----X----3----X----3----X----3----X| E|-----3---------3---------3---------3| e|------------------------------------| B|------------------------------------| G|------------------------------------| D|------------------------------------| A|---3-3-3-3--5-6-6-6-6--3------------| E|--3---------------------6-6-6-6-3-6-|

e|---------------------------------------|
B|---------------------------------------|
G|---------------------------------------|
D|--------------------------3-5-5-5-5--5-|
A|----3-3-3-3--5-6-6-6-6-3------------6--|
E|--3------------------------------------|
e|------------------------------------| B|------------------------------------| G|------5-5-5h3-----------------------| D|--3h5--------5-5--3h5--5-3----------| A|---------------------------5-3------| E|------------------------------------|

e|---------------------------------------|
B|---------------------------------------|
G|---------------------------------------|
D|---------------------------------------|
A|--3--------6-6-6---5-6-3--3---3--------|
E|---4-4-4--4-----------------3----------|
PM------------------------------------| e|------------------------------------| B|------------------------------------| G|------------------------------------| D|5----5----5----5----5----5----5----5| A|3----X----3----X----3----X----3----X| E|-----3---------3---------3---------3| [Chorus] e|------------------------------------| B|---8--8--8---11~---13-13-13--8~-----| G|---9--9--9---12~---14-14-14--9~-----| D|------------------------------------| A|------------------------------------| E|------------------------------------| e|------------------------------------| B|------------------------------------| G|------------------------------------| D|------------------------------------| A|-----------6--6-3-------------------| E|--3–4-4-4---------------------------| PM------------------------------------| e|------------------------------------| B|------------------------------------| G|------------------------------------| D|5----5----5----5----5----5----5----5| A|3----X----3----X----3----X----3----X| E|-----3---------3---------3---------3| [Outro] e|------------------------------------| B|---8--8--8---11~---13-13-13--8~-----| G|---9--9--9---12~---14-14-14--9~-----|x2 D|------------------------------------| A|------------------------------------| E|------------------------------------|

Leave a Reply

Loading...