KHAIRIYAT GUITAR TABS | Arijit Singh | Chhichhore

Khairiyat” is a beautiful song, sung by Arijit Singh for Sushant Singh Rajput‘s film “Chhichhore“. The Song is composed by Pritam and penned by Amitabh Bhattacharya. The track is on the C minor scale.

Learn to play
Khairiyat Chords

e------------------------------------------|
B-----------4-3----3h4-------------4-3-----|
G--5--3-5-5------5----5-3-5--3-5-5---------|
D------------------------------------------|
A------------------------------------------|
E------------------------------------------|
Khairiyat Pucho Kabhi to kaifiyat pucho


e------------------------------------------|
B--4-3h4------------4--3-------------------|
G--------5\3-3--2-3------1/3-1-3\1-0-------|
D------------------------------------------|
A------------------------------------------|
E------------------------------------------|
Tumhare bin deewane ka kya haal hai

e------------------------------------------|
B------------------------------------------|
G--5h7---5-7/8-7---5/7-7h8---5----5-5-8-7--|
D------8-------------------8----8----------|
A------------------------------------------|
E------------------------------------------|
Dil Mera dejho Naa meri haisiyat dekho

e------------------------------------------|
B------------------------------------------|
G--8-7----------7/8-7----------------------|
D------8-8--7-8------ 8--6-8-6-5-----------|
A------------------------------------------|
E------------------------------------------|
Tere Bin ek din jaise sau saal hai


e------------------------------------------|
B-----3-4-4/6--4-6-6------3-3/4--3-4-4-----|
G-3/5-----------------3-5------------------|
D------------------------------------------|
A------------------------------------------|
E------------------------------------------|
Anjaam Hai tai mera hona tumhe hai mera

e------------------------------------------|
B--------3-----3-3-------------------------|
G----3-5----5------5-5-5h7-4---------------|
D--6---------------------------------------|
A------------------------------------------|
E------------------------------------------|
Jitni bhi ho duriya filhaal hai.

e------------------------------------------|
B------------------------------------------|
G-------5----------------------------------|
D--8--6---8--6-6-8-6-5---------------------|
A------------------------------------------|
E------------------------------------------|
Yeh duriya filhaal hai.
Stanza

e------------------------------------------|
B--4-4-3---3-4--6-4--3---------------------|
G--------5-------------5-4-5---------------|
D------------------------------------------|
A------------------------------------------|
E------------------------------------------|
Tumhari tasveer ke sahare

e------------------------------------------|
B----3-4--6-4--3---------------------------|
G--5-------------5-4-5---------------------|
D------------------------------------------|
A------------------------------------------|
E------------------------------------------|
Mausam Kai guzaare

e------------------------------------------|
B-4-3-----3/4------3/4--3---3---3----------|
G-----5-------------------5---5---5-4-2-4--|
D-------6------6-6-------------------------|
A------------------------------------------|
E------------------------------------------|
Mausami na samjho par ishq ko humaare


e--------------------------------------------|
B----3-4--6-4-3----------3-4-6-4/6\4-3-------|
G--5------------5-4-5--5---------------5-4-5-|
D--------------------------------------------|
A--------------------------------------------|
E--------------------------------------------|
Nazro ke samne mai aata nahi tumhare

e-----------------------------------------------|
B--4-4-3-------3/4-----3/4--3---3---3-4-3-------|
G--------5-3------------------5---5-------5-4-5-|
D------------6-----6-6--------------------------|
A-----------------------------------------------|
E-----------------------------------------------|
Magar rehte ho har pal manzar mein tum humare

e------------------------------------------|
B-----3-4-4/6--4-6-6------3-3/4--3-6-4-----|
G-5-5-----------------3-5------------------|
D------------------------------------------|
A------------------------------------------|
E------------------------------------------|
Agar ishq se hai mila phir dard se kya gila


e------------------------------------------|
B--------3-----3-3-------------------------|
G----3-5----5------5-5-5h7-4---------------|
D--6---------------------------------------|
A------------------------------------------|
E------------------------------------------|
Iss dard mein zindagi khush haal hai

e------------------------------------------|
B------------------------------------------|
G-------5----------------------------------|
D--8--6---8--6-6-8-6-5---------------------|
A------------------------------------------|
E------------------------------------------|
Yeh Duriya filhaal hai

Learn to play
Khairiyat Chords
Main Tumhara Chords
Main Tumhara Guitar Tabs

Khairiyat Track Info

Leave a Comment

Your email address will not be published.


Scroll to Top