TUJHE KITNA CHAHEIN AUR HUM INTERLUDE TABS | Kabir Singh

This is one of the best songs of Shahid Kapoor‘s blockbuster Hindi film Kabir Singh. The song is sung by Jubin Nautiyal which is composed by Mithoon.

This is the guitar interlude tabs for this song, played on Guitar with Distortion. The scale of the song is B major.
Also, learn to play Tujhe Kitna Chahein Aur Hum Chords

   E   F# G#m D#m E  F# G#m
e------------------------------------|
B--17--19-16-------------------------|
G-------------18-16--15-13-----------|
D------------------------------------|
A------------------------------------|
E------------------------------------|
E F# G#m D#m E F# G#m
e------------------------------------|
B--17--19-16-------------------------|
G-------------18-16--15-13-----------|
D------------------------------------|
A------------------------------------|
E------------------------------------|

Track Info

Leave a Reply

Loading...