Vampire Weekend – This Life Chords

This Life Chords by Vampire Weekend

Presenting This Life Chords by Vampire Weekend.

This Life Chords Info

  • Key: A
  • Chords: A, D5, B5, E

Track Info

This Life Chords by Vampire Weekend
This Life Chords by Vampire Weekend

Song: This Life
Artist: Vampire Weekend
Produced by: Ezra Koenig & Ariel Rechtshaid
Album: Father of the Bride
Written By: iLoveMakonnen, Mark Ronson
& Ezra Koenig

Guitar Intro

E|----------------------|-----10---------------|
B|--14-14---12---10-10--|-/12------14---12-12--|
G|--14-14---13---11-11--|----------14---13-13--|
D|----------------------|----------------------| 
A|----------------------|----------------------|
E|----------------------|----------------------|

E|--12-12---10----------|-----10---------------|
B|--14-14---12---10-10--|-/12------14---12-12--|
G|---------------11-11--|----------14---13-13--|
D|----------------------|----------------------|
A|----------------------|----------------------|
E|----------------------|----------------------|  X 2

[Verse 1]

[A]Baby, I know [D5]pain is as natural as the [E]rain
I just [A]thought it didn’t [D5]rain in California [E]
[A]Baby, I know [D5]love isn’t what I thought it [E]was
‘Cause I’ve [A]never known a [D5]love like this befo[E]re ya

 E|-------------------------------------------------|
 B|-14-14-14-14-12-12-12-12-10-10-10-10-10-10-10-10-|
 G|-14-14-14-14-13-13-13-13-11-11-11-11-11-11-11-11-|
 D|-------------------------------------------------|
 A|-------------------------------------------------|
 E|-------------------------------------------------|


 E|-------------------------------------------------|
 B|-15-15-15-15-14-14-14-14-12-12-12-12-12-12-12-12-|
 G|-16-16-16-16-14-14-14-14-13-13-13-13-13-13-13-13-|
 D|-------------------------------------------------|
 A|-------------------------------------------------|
 E|-------------------------------------------------|


[A]Baby, I know [D5]dreams tend to crumble at ex[E]tremes
I just [A]thought our dream would [D5]last a little bit longer[E]
There’s a [A]time when every [D5]man draws a line down in the [E]sand
We’re sur[A]viving, we’re still [D5]living, are we stronger?[E]
Hoo hoo [A] [D5] [E]
Hoo hoo [A] [D5] [E]

[Chorus]

You’ve been [D5]cheating on, cheating on [B5]me
I’ve been [E]cheating on, cheating on [A]you
You’ve been [D5]cheating on me[B5]
But I’ve been [E]cheating through this [A] life [D5]
[E] and all its [A]suffering [D5] [E]
Oh [A]Christ, [D5] [E] am I good for [A]nothing?[D5] [E]

[Verse 2]

[A]Baby, I know [D5]hate is always waiting at the [E]gate
I just [A]thought we locked the [D5]gate when we left in the morning[E]
And [A]I was told that [D5]war is how we landed on these [E]shores
I just [A]thought the drums would [D5]all be loude warnings[E]
Hoo hoo[A] [D5] [E]
Hoo hoo [A] [D5] [E]

[Chorus]

You’ve been [D5]cheating on, cheating on [B5]me
I’ve been [E]cheating on, cheating on [A]you
You’ve been [D5]cheating on me[B5]
But I’ve been [E]cheating through
This [E]life
(You’ve been cheating on, cheating on [D5]me
I’ve been cheating on, cheating on [E]you)
And all its [A]suffering
(You’ve been cheating on me,[D5] I’ve been cheating throu[E]gh)
Oh [A]Christ
(You’ve been cheating on, cheating on [D5]me
I’ve been cheating on, cheating on [E]you)
Am I good for [A]nothing?
(You’ve been cheating on me, [D5] I’ve been cheating throu[E]gh)

[Verse 3]

[A]Baby, I know [D5]death probably hasn’t happened [E]yet
‘Cause I [A]don’t remember [D5]living life before this[E]
[A]And darling, our di[D5]sease is the same one as the [E]trees
Una[A]ware that they’ve been [D5]living in a forest[E]
Hoo hoo[A] [D5] [E]
Hoo hoo [A] [D5] [E]

[Chorus]

You’ve been [D5]cheating on, cheating on [B5]me
I’ve been [E]cheating on, cheating on [A]you
You’ve been [D5]cheating on me[B5]
But I’ve been [E]cheating through
This [E]life
(You’ve been cheating on, cheating on [D5]me
I’ve been cheating on, cheating on [E]you)
And all its [A]suffering
(You’ve been cheating on me,[D5] I’ve been cheating throu[E]gh)
Oh [A]Christ
(You’ve been cheating on, cheating on [D5]me
I’ve been cheating on, cheating on [E]you)
Am I good for [A]nothing?
(You’ve been cheating on me, [D5] I’ve been cheating throu[E]gh)

This [E]life
(You’ve been cheating on, cheating on [D5]me
I’ve been cheating on, cheating on [E]you)
And all its [A]suffering
(You’ve been cheating on me,[D5] I’ve been cheating throu[E]gh)
Oh [A]Christ
(You’ve been cheating on, cheating on [D5]me
I’ve been cheating on, cheating on [E]you)
Am I good for [A]nothing?
(You’ve been cheating on me, [D5] I’ve been cheating throu[E]gh)



Leave a Reply

Loading...