Arijit Singh: Amaro Porano Jaha Chay Guitar Tab

Track Info

  • Song: Amaro Porano Jaha Chay
  • Singer: Arijit Singh
  • Composition: Rabindra Nath Tagore
  • Lyrics: Rabindra Nath Tagore
  • Genre: Rabindra Sangeet
  • Music Arrangement: Rana Majumdar
  • Language: Bengali
  • Year: 2018

Amaro Porano Jaha Chay is a beautiful heart touching Rabindra Sangeet. Although the song is sung by various artists. This Song is decorated with the soulful voice of Arijit Singh for a TV show.
Stories By Anurag Basu.

Amaro Porano Jaha Chay Tabs


E-----------------------------------------|
B-----------------------------------------|
G--2-4-2----------------------------------|
D--------5-4-2-4-1-2----------------------|
A-----------------------------------------|
E-----------------------------------------|
Amaro Porano Jaha chay

E-----------------------------------------|
B-----------------------------------------|
G--2-4-2----------------------------------|
D--------5-4-2-4-1-2----------------------|
A-----------------------------------------|
E-----------------------------------------|
Amaro Porano Jaha chay

E-----------------------------------------|
B-----------------------------------------|
G------4-2/4--4-4/6--2/4-2/4--------------|
D--2-2------------------------5--4-2------|
A-----------------------------------------|
E-----------------------------------------|
Tumi tai ...Tumi tai go.. o o

E----------------------------------------|
B----------------------------------------|
G--2-4-2---------------------------------|
D-----------5-4-2-4-2-1-2----------------|
A----------------------------------------|
E----------------------------------------|
Amaro Porano Jaha chay

E----------------------------------------|
B---------------2------------------------|
G--2-2-4-4-4--4---2--4-------------------|
D----------------------------------------|
A----------------------------------------|
E----------------------------------------|
Toma chara are e jogote


E----------------------------------------|
B-------5-4/5----2-----------------------|
G--4--4------------4-2/4-2/4-------------|
D-----------------------------5--4-2-----|
A----------------------------------------|
E----------------------------------------|
Mor keho nai Kichu nai go...


E----------------------------------------|
B----------------------------------------|
G--2-4-2---------------------------------|
D---------5-4-2-4-2-1-2------------------|
A----------------------------------------|
E----------------------------------------|
Amaro Porano Jaha chay


Music

E---------7--7--7-7-7-5h7-5--5--5\2------|
B--5-7-7---------------------------------|
G----------------------------------------|
D----------------------------------------|
A----------------------------------------|
E----------------------------------------|

E--2--2--2--2/5--2--2--------------------|
B------------------5--4-4/5--------------|
G----------------------------------------|
D----------------------------------------|
A----------------------------------------|
E----------------------------------------|


Stanza


E----------------------------------------|
B----2-------4-4--4\2-4-4/5-4/5----------|
G--4---2-4-4-----------------------------|
D----------------------------------------|
A----------------------------------------|
E----------------------------------------|
Tumi sukho Jodi Nahi pao


E----------2-2-2-2/3-2-------------------|
B--5\4-5-5-------------5-4/5--2----------|
G--------------------------------4-------|
D----------------------------------------|
A----------------------------------------|
E----------------------------------------|
Jao sukhero sondhane jaao o

E----------------------------------------|
B----2-------4-4--4\2-4-4/5-4/5----------|
G--4---2-4-4-----------------------------|
D----------------------------------------|
A----------------------------------------|
E----------------------------------------|
Tumi sukho Jodi Nahi pao


E----------2-2-2-2/3-2-------------------|
B--5\4-5-5-------------5-4/5--2----------|
G--------------------------------4-------|
D----------------------------------------|
A----------------------------------------|
E----------------------------------------|
Jao sukhero sondhane jaao o


E----------------------------------------|
B-----2---------------4-4/5-5--5--5------|
G--4----2-4-4-4-4--4---------------------|
D----------------------------------------|
A----------------------------------------|
E----------------------------------------|
Ami tomake peyechi hridoyo majhe


E--------2--------------------------------|
B--4/5\4---5-4-2--2-----------------------|
G--------------------4-2/4-2/4------------|
D------------------------------5--4-2-----|
A-----------------------------------------|
E-----------------------------------------|
Aro  kichu Nahi chay  go o o


E-----------------------------------------|
B-----------------------------------------|
G--2-4-2----------------------------------|
D--------5-4-2-4-1-2----------------------|
A-----------------------------------------|
E-----------------------------------------|
Amaro Porano Jaha chay


E-----------------------------------------|
B-----------------------------------------|
G--2-4-2----------------------------------|
D--------5-4-2-4-1-2----------------------|
A-----------------------------------------|
E-----------------------------------------|
Amaro Porano Jaha chay


E-----------------------------------------|
B-----------------------------------------|
G------4-2/4--4-4/6--2/4-2/4--------------|
D--2-2------------------------5--4-2------|
A-----------------------------------------|
E-----------------------------------------|
Tumi tai ...Tumi tai go.. o o


E----------------------------------------|
B----------------------------------------|
G--2-4-2---------------------------------|
D-----------5-4-2-4-2-1-2----------------|
A----------------------------------------|
E----------------------------------------|
Amaro Porano Jaha chay


E----------------------------------------|
B---------------2------------------------|
G--2-2-4-4-4--4---2--4-------------------|
D----------------------------------------|
A----------------------------------------|
E----------------------------------------|
Toma chara are e jogote

E----------------------------------------|
B-------5-4/5----2-----------------------|
G--4--4------------4-2/4-2/4-------------|
D-----------------------------5--4-2-----|
A----------------------------------------|
E----------------------------------------|
Mor keho nai Kichu nai go...


E----------------------------------------|
B----------------------------------------|
G--2-4-2---------------------------------|
D---------5-4-2-4-2-1-2------------------|
A----------------------------------------|
E----------------------------------------|
Amaro Porano Jaha chay

 

This Post Has One Comment

  1. Tamal Das

    Nice song Tab.

Leave a Reply

Loading...