Dum Maro Dum Guitar Intro Tab | Hare Krishna Hare Ram

Dum Maro Dum Guitar Intro Tab

Learn to play Dum Maro Dum Guitar Intro Tab from the film Hare Krishna Hare Ram.
Dum Maro Dum is one of the most famous guitar based song which every Guitarist want to play.

Dum Maro Dum Guitar Intro Tab
Dum Maro Dum

 

Dum Maro Dum Song Credit

  • Song: Dum Maro Dum
  • Film: Hare Krishna Hare Ram
  • Singer: Asha Bhosle
  • Music: R.D.Burman
  • Label: Saregama
  • Language: Hindi
  • Year:1971

Scale D minor

E|-----------------------------------|
B|------5/6-6-6-6-5/6----------------|
G|----7------------------------------|
D|--7--------------------------------|
A|-----------------------------------|
E|-----------------------------------|

E|-----------------------------------|
B|------5/6-6-6-6-5/6----------------|
G|----7------------------------------|
D|--7--------------------------------|
A|-----------------------------------|
E|-----------------------------------|


E|-----------------------------------|
B|------5/6-6-6-6-5/6----------------|
G|----7------------------------------|
D|--7--------------------------------|
A|-----------------------------------|
E|-----------------------------------|

E|-----------------------------------|
B|------5/6-6-6-6-5/6----------------|
G|----7------------------------------|
D|--7--------------------------------|
A|-----------------------------------|
E|-----------------------------------|



E|-----------------------------------|
B|------5/6-6-6-6-5/6----------------|
G|----7------------------------------|
D|--7--------------------------------|
A|-----------------------------------|
E|-----------------------------------|

E|-----------------------------------|
B|------5/6-6-6-6-5/6----------------|
G|----7------------------------------|
D|--7--------------------------------|
A|-----------------------------------|
E|-----------------------------------|

Learn To Play

Good Things Fall Apart Intro Tab
DESPACITO GUITAR TABS by Luis Fonsi Ft.Daddy Yankee
Pirates Of The Caribbean (Main Theme) Guitar Tab
Aankh Hai Bhari Bhari | Intro | Guitar Lesson
Arijit Singh Soch Na Sake Guitar Intro Lesson

 

 

 

ON DESPACITO GUITAR TABS BY LUIS FONSI FT.DADDY YANKEE

Leave a Reply

Loading...