Ella Grace – She Tab

On the 31st of March 2017, the track was released, written by Ella Grace.

she 1

Track Info

  • Song: She
  • Artist: Ella Grace
  • Release Date: March 31, 2017
[Intro]
 
e|------------------------------------------------------------|
B|------------------------------------------------------------|
G|--------4--------------4--------------4--------------4------|
D|------------4--------------4--------------4--------------4--|
A|--2--2-----------2--2-----------2--2-----------2--2---------|
E|------------------------------------------------------------|
 
 
[Verse 1]
 
e|------------------------------------------------------------|
B|------------------------------------------------------------|
G|--------4--------------4--------------4--------------4------|
D|------------4--------------4--------------4--------------4--|
A|--2--2-----------2--2-----------2--2-----------2--2---------|
E|------------------------------------------------------------|
    Where does she go, my love,                            with ...
 
e|------------------------------------------------------------|
B|------------------------------------------------------------|
G|--------4-------------4--------------4--------------4-------|
D|-----------6--------------6--------------6--------------6---|
A|--7--7----------7--7-----------7--7-----------7--7----------|
E|------------------------------------------------------------|
   you?                                                   The ...
 
e|------------------------------------------------------------|
B|------------------------------------------------------------|
G|--------4--------------4--------------4--------------4------|
D|------------4--------------4--------------4--------------4--|
A|--2--2-----------2--2-----------2--2-----------2--2---------|
E|------------------------------------------------------------|
    words that she wrote, my love,                         they’re ...
 
e|------------------------------------------------------------|
B|------------------------------------------------------------|
G|--------4-------------4--------------4--------------4-------|
D|-----------6--------------6--------------6--------------6---|
A|--7--7----------7--7-----------7--7-----------7--7----------|
E|------------------------------------------------------------|
   new.                                            So while your ...
 
 
[Chorus]
 
e|------------------------------------------------------------|
B|------------------------------------------------------------|
G|--------6--------------6--------------4--------------4------|
D|------------8--------------8--------------6--------------6--|
A|--9--9-----------9--9-----------7--7-----------7--7---------|
E|------------------------------------------------------------|
   head is in the sky, and your   heart is floating high, she'll paint it ...
 
e|------------------------------------------------------------|
B|------------------------------------------------------------|
G|--------4--------------4--------------4--------------4------|
D|------------4--------------4--------------4--------------4--|
A|--2--2-----------2--2-----------2--2-----------2--2---------|
E|------------------------------------------------------------|
    ... blue
 
 
[Verse 2]
 
e|------------------------------------------------------------|
B|------------------------------------------------------------|
G|--------4--------------4--------------4--------------4------|
D|------------4--------------4--------------4--------------4--|
A|--2--2-----------2--2-----------2--2-----------2--2---------|
E|------------------------------------------------------------|
    What does she give, my love,                    that I don’t ...
 
e|------------------------------------------------------------|
B|------------------------------------------------------------|
G|--------4-------------4--------------4--------------4-------|
D|-----------6--------------6--------------6--------------6---|
A|--7--7----------7--7-----------7--7-----------7--7----------|
E|------------------------------------------------------------|
    give?                                                 The ...
 
e|------------------------------------------------------------|
B|------------------------------------------------------------|
G|--------4--------------4--------------4--------------4------|
D|------------4--------------4--------------4--------------4--|
A|--2--2-----------2--2-----------2--2-----------2--2---------|
E|------------------------------------------------------------|
    taste remains on my lips,                       those times we ...
 
e|------------------------------------------------------------|
B|------------------------------------------------------------|
G|--------4-------------4--------------4--------------4-------|
D|-----------6--------------6--------------6--------------6---|
A|--7--7----------7--7-----------7--7-----------7--7----------|
E|------------------------------------------------------------|
   kissed.                                         So while your ...
 
 
[Chorus 2]
 
e|------------------------------------------------------------|
B|------------------------------------------------------------|
G|--------6--------------6--------------4--------------4------|
D|------------8--------------8--------------6--------------6--|
A|--9--9-----------9--9-----------7--7-----------7--7---------|
E|------------------------------------------------------------|
    head is floating high, and your heart is the sky, it's you I'll ...
 
e|------------------------------------------------------------|
B|------------------------------------------------------------|
G|--------4--------------4--------------4--------------4------|
D|------------4--------------4--------------4--------------4--|
A|--2--2-----------2--2-----------2--2-----------2--2---------|
E|------------------------------------------------------------|
    miss.                                           So while your ...
 
e|------------------------------------------------------------|
B|------------------------------------------------------------|
G|--------6--------------6--------------4--------------4------|
D|------------8--------------8--------------6--------------6--|
A|--9--9-----------9--9-----------7--7-----------7--7---------|
E|------------------------------------------------------------|
   head is in the sky, and your   heart is floating high, 

it's you I'll ...
e|------------------------------------------------------------| B|------------------------------------------------------------| G|--------4--------------4--------------4--------------4------| D|------------4--------------4--------------4--------------4--| A|--2--2-----------2--2-----------2--2-----------2--2---------| E|------------------------------------------------------------| miss.

Leave a Comment

Your email address will not be published.


Scroll to Top