Oh Oh Jane Jaana Intro Tab | Salman Khan | Pyar Kiya To Darna Kya

An evergreen tune that you can ever play to impress your friends. This is one of the best guitar tunes in Bollywood Hindi song. This is the Intro part of the song “O O Jaane Jaana” feat. Salman Khan. The song is composed by Jatin-Lalit and sung by Kamaal Khan.

Oh Oh Jaane Jaana Chords

The Key of the song is A minor, to play the intro smoothly you must try to practice A minor scale.

  • Film: Pyaar Kiya To Darna Kiya
  • Singer: Kamaal Khan
  • Music: Jatin-Lalit
  • Lyrics: Sameer
  • Label: T-Series

Learn to play
Oh Oh Jane Jana Chords

Scale: Am

1st Ver (7th Position)

E|-----------------------------------| 
B|-----------------------------------| 
G|---------9-7-9---------------------| 
D|--7--7-7-------10------------------|
A|-----------------------------------| 
E|-----------------------------------|

E|-----------------------------------| 
B|-----------------------------------| 
G|--7-7------------------------------| 
D|------9-7-9-5/7-7-5----------------| 
A|-----------------------------------| 
E|-----------------------------------|

E|-----------------------------------| 
B|-----------------------------------| 
G|-----------------------9-----------| 
D|--5-9-9-9-9--9--7--7-7-------------| 
A|-----------------------------------| 
E|-----------------------------------|


E|-----------------------------------| 
B|-----------------------------------| 
G|7-9----7---------------------------| 
D|----10---9-10-7--------------------| 
A|-----------------------------------| 
E|-----------------------------------|

2nd Ver ( Open)

E|---------0---0---------------------| 
B|-----------3---1-------------------| 
G|--2--2-2---------------------------| 
D|-----------------------------------| 
A|-----------------------------------| 
E|-----------------------------------|

E|-----------------------------------| 
B|--3-3-0---0------------------------| 
G|--------2---0/2-2\0----------------| 
D|-----------------------------------| 
A|-----------------------------------| 
E|-----------------------------------|

E|-----------------------------------| 
B|----0--0-0-0-0--0------------------| 
G|--0--------------------------------| 
D|-----------------------------------| 
A|-----------------------------------| 
E|-----------------------------------|

E|---------0---0---------------------|
B|-----------3---1-3-0-1-------------|
G|--2--2-2---------------2-----------|
D|-----------------------------------|
A|-----------------------------------|
E|-----------------------------------|

3rd Ver (10th Position)


E|------------12-10-12---------------|
B|--10--10-10----------13------------|
G|-----------------------------------|
D|-----------------------------------|
A|-----------------------------------|
E|-----------------------------------|

E|--10--10---------------------------|
B|---------12-10-12-8/10-10\8--------|
G|-----------------------------------|
D|-----------------------------------|
A|-----------------------------------|
E|-----------------------------------|

E|-----------------------------------|
B|--8-12--12-12-12-12--12------------|
G|-----------------------------------|
D|-----------------------------------|
A|-----------------------------------|
E|-----------------------------------|

E|------------12-10-12----10----------|
B|--10--10-10----------13----12-13-10-|
G|------------------------------------|
D|------------------------------------|
A|------------------------------------|
E|------------------------------------|

Leave a Reply

Loading...