GENDA PHOOL TAB | BADSHAH | Bengali Folk

Introducing to play Genda Phool Tab Bengali folk song. Easy Tab and guitar lesson.

Genda Phool Track Info

Genda Phool is one of the most famous Bengali folk song which is recreated by Badshah.

  • Song: Genda Phool
  • Artist: Badshah & Payal Dev
  • Lyrics & Compose: Badshah
  • Original Lyrics: Bengali Folk
  • Music Level: Sony Music India

Genda Phool Scale

e|-------------------------------------------------------------------|
B|----6-6-6---6-------6-6-6---6----------------6-7-6-----------------|
G|--8-------8---8\6-8-------8----------6-6-8-8--------8-8-8----------|
D|-------------------------------8-8-8-------------------------------|
A|-------------------------------------------------------------------|
E|-------------------------------------------------------------------|
Bodo loker biti lo lamba lamba chul 
emon matha bendhe dibo laal genda phool

Genda Phool Tab On Single String

e|--11-13-13-13-11-13-11\9--11-13-13-13-11/13------------------------|
B|-------------------------------------------------------------------|
G|-------------------------------------------------------------------|
D|-------------------------------------------------------------------|
A|-------------------------------------------------------------------|
E|-------------------------------------------------------------------|

e|-6-6-6-9-9-11-11-13-14-13-11-11-11---------------------------------|
B|-------------------------------------------------------------------|
G|-------------------------------------------------------------------|
D|-------------------------------------------------------------------|
A|-------------------------------------------------------------------|
E|-------------------------------------------------------------------|

Learn to play 
Genda Phool Bass Tabs

Leave a Reply

Loading...