Polyphia – 40oz Tab

40oz Tab

Track Info

[Intro]

e|---11p9p7--------------11p9p7--------------------------------------------------------------------------9---|
B|9----------7--9--7--9----------9-----11------9--11--12---t19t21p12--------------------16----------15---10--|
G|x-------------x--x--x-------------8----------x--x---x---------------t20-13-11--13h16------12h15--------11--|
D|6-------------6--4--6------------------------x--x---x--------------------------------------------------11--|
A|7-------------7--6--7------------------------7--9---11-------------------------------------------------9---|
E|-----------------------------------------------------------------------------------------------------------|

e|--------12-17p12-----------------------------------14p12p11----------------14p12p11------------------------|
B|----14------------h14-14\10p9-------------------9------------12---9--7--9------------12------14--9--11--12-|
G|14-----------------------------11p9--11\8----8--x-----------------x--x--x----------------12------x---x--x--|
D|---------------------------------------------x--6-----------------6--4--6------------------------x---x--x--|
A|---------------------------------------------x--7-----------------7--7--7------------------------7---9--11-|
E|---------------------------------------------7-------------------------------------------------------------|

e|--------------------------------------------9---------12-17p12---------------------------------------------|
B|t19t21p12-----------------------------------10-----14-----------h14-14\10p9--------------------------------|
G|-----------t20p13p11------------------------11--14---------------------------11p9--11\8--8-----------------|
D|-----------------------------13---------12--11-------------------------------------------x-----------------|
A|----------------------11h14------10h13------9--------------------------------------------x-----------------|
E|-----------------------------------------------------------------------------------------6-----------------|

Sweep picking
e|------------------16-19--------------------------------------------16-19p16--------------------------------|
B|---------------16-----------------------------------------------16----------16-----------------------------|
G|------------16-----------------------------------------------16----------------16--------------------------|
D|---------18-----------------------------------------------18----------------------18-----------------------|
A|------18-------------------------18----------18--------18----------------------------18-------16-----------|
E|16h19--------------------16--19------14--19------16h19----------------------------------15h18--------------|

e|------------------14-19p14---------------------------------------------12-17p12---------------------11h14--|
B|---------------16----------16---------------------------------------14----------14-------------------------|
G|------------16---------------------------------------------------14---------------------------11h14--------|
D|---------16---------------------------------------------------14---------------------------13--------------|
A|------18-------------------------14--18------13--17--------16---------------------------12-----------------|
E|14h19-------------------------14---------13----------12h17------------------------11h14--------------------|

e|------------------16-19--------------------------------------------16-19p16--------------------------------|
B|---------------16-----------------------------------------------16----------16-----------------------------|
G|------------16-----------------------------------------------16----------------16--------------------------|
D|---------18-----------------------------------------------18----------------------18-----------------------|
A|------18-------------------------18----------18--------18----------------------------18-------16-----------|
E|16h19--------------------16--19------14--19------16h19----------------------------------15h18--------------|

e|------------------14-19p14---------------------------------------------12-17p12---------------------11h14--|
B|---------------16----------16---------------------------------------14----------14-------------------------|
G|------------16---------------------------------------------------14---------------------------11h14--------|
D|---------16---------------------------------------------------14---------------------------13--------------|
A|------18-------------------------14--18------13--17--------16---------------------------12-----------------|
E|14h19-------------------------14---------13----------12h17------------------------11h14--------------------|

e|------------------16-19--------------------------------------------16-19p16--------------------------------|
B|---------------16-----------------------------------------------16----------16-----------------------------|
G|------------16-----------------------------------------------16----------------16--------------------------|
D|---------18-----------------------------------------------18----------------------18-----------------------|
A|------18-------------------------18----------18--------18----------------------------18-------16-----------|
E|16h19--------------------16--19------14--19------16h19----------------------------------15h18--------------|

e|------------------14-19p14---------------------------------------------12-17p12---------------------11h14--|
B|---------------16----------16---------------------------------------14----------14-------------------------|
G|------------16---------------------------------------------------14---------------------------11h14--------|
D|---------16---------------------------------------------------14---------------------------13--------------|
A|------18-------------------------14--18------13--17--------16---------------------------12-----------------|
E|14h19-------------------------14---------13----------12h17------------------------11h14--------------------|


#################
| h Hammer-on
| \ Slide down

| p Pull-off
| t Tapping
| x Dead note
#################

Learn to play 
GOAT INTRO TAB

Leave a Comment

Your email address will not be published.


Scroll to Top