Harry Potter Theme tab by Misc Soundtrack

Learn to play the theme tab for Harry Potter.

Harry Potter Heme Tab

Track Info

e|-----0-3-2--7-5--2----0-3-2---0-------|
B|--0-------------------------3---0-----|
G|--------------------------------------|
D|--------------------------------------|
A|--------------------------------------|
E|--------------------------------------|

e|----0-3-2-0--7-10-9-8--5-8-7-6---3-0--|
B|--0----------------------------3------|
G|--------------------------------------|
D|--------------------------------------|
A|--------------------------------------|
E|--------------------------------------|

e|----7----7----8-7-6--6-7-3-2-0-8-7----|
B|--8----8----8-------------------------|
G|--------------------------------------|
D|--------------------------------------|
A|--------------------------------------|
E|--------------------------------------|

e|----7---7---10-9-8--5--8-7-6----3--0--|
B|--8---8---8-------------------3-------|
G|--------------------------------------|
D|--------------------------------------|
A|--------------------------------------|

How useful was this post?

Click on a star to rate it!

Average rating 0 / 5. Vote count: 0

No votes so far! Be the first to rate this post.

As you found this post useful...

Follow us on social media!

Leave a Reply


Scroll to Top