The Longest Johns – Wellerman tabs

On the 19th of June 2018, the track is released. The key of the track is C minor.

Wellerman Tab

Track Info

Wellerman Chords by The Longest Johns

Tunning: Standartd (EADGBE)
Key: Cm

e|---3---------------3--3--3--3-3--4-1-1-1-

B|-----1--1-1-1-4--------------------------
G|-----------------------------------------
D|-----------------------------------------
A|-----------------------------------------
E|-----------------------------------------

-4-4-8-8---------------------1--3-3-3-----4--1------------|
---------8-8---------3--4------------------------4-4-3--1-|
-------------5--5-----------------------------------------|
----------------------------------------------------------|
----------------------------------------------------------|
----------------------------------------------------------|

e|8----8------6--6--3--3---3---4--1--1-3-4-3-
B|--------9----------------------------------
G|-------------------------------------------
D|-------------------------------------------
A|-------------------------------------------
E|-------------------------------------------

--------8---8--6--4--6--6--3--3--3----3--1--------------3--|
-4------------------------------------------4--3--1--1-----|
----5------------------------------------------------------|
-----------------------------------------------------------|
-----------------------------------------------------------|
-----------------------------------------------------------|

e|--------------3--3--3--3----4--1--1---4--8-
B|--1--1--1--4-------------------------------
G|-------------------------------------------
D|-------------------------------------------
A|-------------------------------------------
E|-------------------------------------------

-----------------------3--3--3-----3--1----------8------|
-8--8--8---------4--6----------1---------4--3--1--------|
-----------5--7-----------------------------------------|
--------------------------------------------------------|
--------------------------------------------------------|
--------------------------------------------------------|


e|-8--8----6--6--3--3---3---4--1--1--3--4--3-
B|------9------------------------------------
G|-------------------------------------------
D|-------------------------------------------
A|-------------------------------------------
E|-------------------------------------------

------8---8--6--4--5--5--3--3--3----3--1--------------3-|
-4----------------------------------------4--3--1--1----|
----5---------------------------------------------------|
--------------------------------------------------------|
--------------------------------------------------------|
--------------------------------------------------------|


e|-------------3--3--3--3-3---4--1--1--4--8-
B|-1--1--1--4-------------------------------
G|------------------------------------------
D|------------------------------------------
A|------------------------------------------
E|------------------------------------------

---------------------------------------------------------|
-8--8--8-8---------------6--8--8--8--8--8---9------------|
------------5---7--7--8------------------------10-8-7-5--|
---------------------------------------------------------|
---------------------------------------------------------|
---------------------------------------------------------|

Wellerman Chords by The Longest Johns

Leave a Reply

Loading...