Hayley Williams – Over Those Hills Tab

Over the Hills Tab

Track Info

e|---------------------------------------------------------|
B|---------------------------------------------------------|
G|---------------------------------------------------------|
D|----6-5-3----6-6-6--5-5-5--0-1----5----5h6h5--3--1-------|
A|--------------------------------1-------------------3----|
E|---------------------------------------------------------|
 
e|---------------------------------------------------------|
B|---------------------------------------------------------|
G|---------------------------------------------------------|
D|-------6-6-6--5-5-5--0-1---1-0---0-----------------------|
A|-------------------------------------3--3-6--------------|
E|---------------------------------------------------------|
 
e|---------------------------------------------------------|
B|---------------------------------------------------------|
G|-------------3-5-3----------------------1-3-1------------|
D|---3--3-5-3---------3-5-3--0--1--1-3-1---------1-3-1-1---|
A|---------------------------------------------------------|
E|---------------------------------------------------------|
 
e|---------------------------------------------------------|
B|---------------------------------------------------------|
G|-------------3-5-3---------------------------------------|
D|---3--3-5-3---------3-5-3--0--1--1-0---0-----------------|
A|-----------------------------------------3--3-6----------|
E|---------------------------------------------------------+
 
 
 
*****************
 
| h  Hammer-on
 
*****************

Leave a Reply

Loading...