Kabir Singh – Tujhe Kitna Chahne Lage Guitar Tab

Tujhe Kitna Chahne Lage Hum Guitar Tab

Learn to play Tujhe Kitna Chahne Lage Guitar Tab/ Solo lesson.

Scale Info

The Song is in B major scale, to play this solo lesson must practice B major.

  • Scale: B major 

Track Info

Tujhe Kitna Chahne Lage Guitar Tab

  • Singer: Arijit Singh
  • Album: Kabir Singh
  • Lyricist: Mithoon
  • Music: Mithoon
  • Cast: Shahid Kapoor, Kiara Advani
  • Music Label: T-Series
e|---------------------------------------------------|
B|---------------------------------------------------|
G|--8-8-6---6/8------6-------------------------------|
D|--------9------8/9---9-9---------------------------|
A|---------------------------------------------------|
E|---------------------------------------------------|
     Dil ka dariya beh hi gaya 

e|---------------------------------------------------|
B|--7-7-7-7------------------------------------------|
G|----------------4/6-8-6-6--------------------------|
D|------------9--------------------------------------|
A|---------------------------------------------------|
E|---------------------------------------------------|
    Ishq ibaa dat ban hi gaya

e|---------------------------------------------------|
B|---------------------------------------------------|
G|--8-6---6/8------6---------------------------------|
D|------9------8/9---9-8\6-9-------------------------|
A|---------------------------------------------------|
E|---------------------------------------------------|
    Khud ko mujhe tu sonp de

e|---------------------------------------------------|
B|--7-7-7-5/7----------------------------------------|
G|------------------4/6-8-6-6------------------------|
D|--------------9--------------8-6-------------------|
A|---------------------------------9-----------------|
E|---------------------------------------------------|
   Meri zaroorat tu ban gaya aa a


e|---------------6-6---------------------------------|
B|------7-9-7/9------9-7-7---------------------------|
G|--8-9----------------------------------------------|
D|---------------------------------------------------|
A|---------------------------------------------------|
E|---------------------------------------------------|
      Baat dil ki  nazron ne ki
e|---------------------------------------------------| B|--7------------------------------------------------| G|----9-8-6/9--9/11-9-8-8--9-8-6---------------------| D|---------------------------------------------------| A|---------------------------------------------------| Sach Keh Raha Teri Kasam
e|---------------------------------------------------|
B|---------------------------------------------------|
G|----6-8-6\4-4-6-9-8-6-6----------------------------|
D|--9------------------------------------------------|
A|---------------------------------------------------|
E|---------------------------------------------------|
Tere bin ab na lenge ek bhi dum 

e|---------------------------------------------------|
B|---------------------------------------------------|
G|----6-8-8-6\4-6-9-6--------------------------------|
D|--9-----------------9-9----------------------------|
A|---------------------------------------------------|
E|---------------------------------------------------|
Tujhe kitna Chahne Lage Hum 

e|---------------------------------------------------|
B|---------------------------------------------------|
G|----6-8-6\4-4-6-9-8-6-6----------------------------|
D|--9------------------------------------------------|
A|---------------------------------------------------|
E|---------------------------------------------------|
Tere Saath Ho Jayenge Khatam 

e|---------------------------------------------------|
B|---------------------------------------------------|
G|----6-8-8-6\4-6-9-6--------------------------------|
D|--9-----------------9-9----------------------------|
A|---------------------------------------------------|
E|---------------------------------------------------|
Tujhe kitna Chahne Lage Hum 
Kabir Singh

Kabir Singh – Tujhe Kitna Chahne Lage Guitar Chords
Kabir Singh – Tera Ban Jaunga Chords
Kabir Singh – Mere Sohneya Guitar Chords
Kabir Singh – Kaise Hua Guitar Chords
Kabir Singh -Pehla Pyaar Guitar Chords

Leave a Reply

Loading...