LET IT GO TAB (ACOUSTIC) – James Bay

Introducing to play “Let It Go Tab” by James Bay. Easy acoustic guitar tab by James Bay.

Let It Go Tab
Let It Go Tab

Let It Go Tab Track Info

  • Song: Let It Go
  • Artist: James Bay
  • Produced by Jacquire King
  • Album: Chaos and the Calm
  • Bass: Eli Beaird
  • Guitar: James Bay

[Intro:]

e|---------------------------------------------------------------------------|
B|---------0-------0------------0---------0--------0--------0----------------|
G|----0-------0------------0--------0----------0------0----------------------|
D|---------------------------------------------------------------------------|
A|----------------------3----3---------3-------------------------------------|
E|--3---3-------3----------------------------0---0-------0-------------------|

e|---------------------------|
B|-----------0--------0------|
G|-----2--------2------------| X2
D|--0-----0--------0---------|
A|---------------------------|
E|---------------------------|

[Verse 1:]

[From walking home, and talking loads...]
e|---------------------------------------------------------------------------|
B|---------0-------0------------0---------0--------0--------0----------------|
G|----0-------0------------0--------0----------0------0----------------------|
D|---------------------------------------------------------------------------|
A|----------------------3----3---------3-------------------------------------|
E|--3---3-------3----------------------------0---0-------0-------------------|

e|---------------------------|
B|-----------0--------0------|
G|-----2--------2------------| X3
D|--0-----0--------0---------|
A|---------------------------|
E|---------------------------|

[Bridge:]

[But now we're slipping at the edge...]

e|---------------------------------------------------------------------------|
B|---------0------0----------------0--------0-----------0-----0--------------|
G|----0-------0--------------2--------2-------------0-----0------------------|
D|------------------------0-----0--------0-----------------------------------|
A|------------------------------------------------3---3-----3----------------|
E|--0---0-------0------------------------------------------------------------|

e|-----------------------|
B|---------0------0------|
G|----0-------0----------| X2
D|-----------------------|
A|-3----3-------3----*3--|
E|-----------------------|

[1st Part of Chorus:]

(So come on , let it go...)

e|---------------------------------------------------------------------------|
B|--------0------0-------0-----0--------0-------0----------------------------|
G|----0------0-------0-----0--------0------0---------------------------------|
D|---------------------------------------------------------------------------|
A|--3---3------3-------------------------------------------------------------|
E|----------------^3---3-----3----0---0------0-------------------------------|

e|---------------------------------------|
B|--------0-----0-----------0-----0------|
G|----2-----2-----------2-----2----------| ^ Quick:
D|--0---0-----0------0----0-----0--------|
A|---------------------------------------|
E|---------------------------------------|

[2nd Part of Chorus:]

(Why don't you be you...)

e|---------------------------------------------------------------------------|
B|---------0-------0-----------0-------0-----------0-------0-----------------|
G|-----0-----0------------0-------0-----------0------0-----------------------|
D|---------------------------------------------------------------------------|
A|---3---3------3------------------------------------------------------------|
E|---------------------^3---3-------3------0----0------0---------------------|

e|---------------------------------------------------------------------------|
B|--------0--------0------------0---------0----------------------------------|
G|---2-------2------------2--------2-----------------------------------------|
D|-0---0--------0------0-----0---------0-------------------------------------|
A|---------------------------------------------------------------------------|
E|---------------------------------------------------------------------------|

[Verse 2:]

e|---------------------------------------------------------------------------|
B|---------0-------0------------0---------0--------0--------0----------------|
G|----0-------0------------0--------0----------0------0----------------------|
D|---------------------------------------------------------------------------|
A|----------------------3----3---------3-------------------------------------|
E|--3---3-------3----------------------------0---0-------0-------------------|

e|---------------------------|
B|-----------0--------0------|
G|-----2--------2------------| X3
D|--0-----0--------0---------|
A|---------------------------|
E|---------------------------|

[1st Part of Chorus:]

[So come on , let it go...]

e|---------------------------------------------------------------------------|
B|--------0------0-------0-----0--------0-------0----------------------------|
G|----0------0-------0-----0--------0------0---------------------------------|
D|---------------------------------------------------------------------------|
A|--3---3------3-------------------------------------------------------------|
E|----------------^3---3-----3----0---0------0-------------------------------|

e|---------------------------------------|
B|--------0-----0-----------0-----0------|
G|----2-----2-----------2-----2----------| ^ Quick:
D|--0---0-----0------0----0-----0--------|
A|---------------------------------------|
E|---------------------------------------|

[2nd Part of Chorus:]

e|---------------------------------------------------------------------------|
B|---------0-------0-----------0-------0-----------0-------0-----------------|
G|-----0-----0------------0-------0-----------0------0-----------------------|
D|---------------------------------------------------------------------------|
A|---3---3------3------------------------------------------------------------|
E|---------------------^3---3-------3------0----0------0---------------------|

e|---------------------------------------------------------------------------|
B|--------0--------0------------0---------0----------------------------------|
G|---2-------2------------2--------2-----------------------------------------|
D|-0---0--------0------0-----0---------0-------------------------------------|
A|---------------------------------------------------------------------------|
E|---------------------------------------------------------------------------|

Leave a Reply

Loading...