Lorde – Fallen Fruit Solo Tab

The key of the track is F#minor. On the 20th of August 2021, the song was released, produced by Lorde & Jack Antonoff.

Chords Info

  • Tuning: Standard(E A D G B e)
  • Key: F#m
Fallen Fruit

Track Info

E|-----------------|-----------------|
B|-----------------|-----------------|
G|--9------9--11v--|-------------13--|
D|-----11----------|--9/11\9/11------|
A|-----------------|-----------------|
E|-----------------|-----------------|
 
e|------------------------------------------------|
B|------------------------------------------------|
G|--9------9--11--9--9----------------------------|
D|-----11---------------12--12--11--11--9--7/11v--|
A|------------------------------------------------|
E|------------------------------------------------|


E|---------------------------|------------------------------| B|---------10--9------9------|-----------10--9------14------| G|--9--11---------11-----11--|--9--9--11--------11------11--| D|---------------------------|------------------------------| A|---------------------------|------------------------------| E|---------------------------|------------------------------| E|---------------------|-----------| B|--10--9--------------|-----------| G|---------11--9--11v--|--11--13v--| D|---------------------|-----------| A|---------------------|-----------| E|---------------------|-----------|

================= v - Vibrato / - Slide up \ - Slide down
=================

Also play:
Fallen Fruit Chords

If you like the work please write down your experience in the comment section, or if you have any suggestions/corrections please let us know in the comment section.

Leave a Reply


Scroll to Top