Marjaavaan – Tum Hi Aana Tabs | Jubin Nautiyal

Introducing to play “Tum Hi Aana Tabs” by Jubin Nautiyal from the film Marjaavaan.

Tum Hi Aana Tabs

Key: Em

Track Info

  • Song: Tum Hi Aana
  • Singer: Jubin Nautiyal
  • Album: Marjaavaan
  • Lyricist: Kunaal Vermaa
  • Music: Payal Dev
  • Director: Milap Zaveri
  • Cast: Riteish Deshmukh, Sidharth Malhotra, Tara Sutaria
  • Music Label: T-Series

Intro

e|-----7--7-------------------7--7--------------|
B|-----------10-8-7-8---------------10-8-7-8----|
G|--9-----------------9----9-----------------9--|
D|----------------------------------------------|
A|----------------------------------------------|
E|----------------------------------------------|

e|------------------------------------------------| B|-----10--10--8-7---7---------10--10--8-7---7----| G|--7--------------9---7----7--------------9---7--| D|------------------------------------------------| A|------------------------------------------------| E|------------------------------------------------|

e|--------------------------------| B|--------7--8-7------------------| G|---------------9----------------| D|--10-10-------------------------| A|--------------------------------| E|--------------------------------|

You may like to play Tum Hi Aana Chords.

e|------------------------------------------------------|
B|--5-3----3------5-3----3------5-3----3----------------|
G|------5----5-4------5----5-4------5----5-4\2---2-2/4--|
D|---------------------------------------------5--------|
A|------------------------------------------------------|
E|------------------------------------------------------|
Tere jane ka gum aur na aane ka gum fir zamane ka
gum kya kare


e|------------------------------------------------------|
B|--5-3----3------5-3----3------5-3----3----------------|
G|------5----5-4------5----5-4------5----5-4\2---2-2/4--|
D|---------------------------------------------5--------|
A|------------------------------------------------------|
E|------------------------------------------------------|
Raah dekhe nazar raat bhar jagkar par teri toh khabar
na mile


e|----------------------------------------------------------|
B|----------------------------------------------------------|
G|----------------------------4-4-2-4/5-4-------------------|
D|--------4/5-2--2-2/4-2\0-4--------------5\4--4-5/7-5\4-2--|
A|--2-2-5---------------------------------------------------|
E|----------------------------------------------------------|
Bahut aayi gayi yaadein magar ish baar tum hi aana

e|----------------------------------------------------------|
B|----------------------------------------------------------|
G|----------------------------4-4-2-4/5-4-------------------|
D|--------4/5-2--2-2/4-2\0-4--------------5\4--4-5/7-5\4-2--|
A|--2-2-5---------------------------------------------------|
E|----------------------------------------------------------|
Iraade fir se jaane ke nahi laana tum hi aana


Stanza


e|----------------------------------------------------------|
B|---------3------5-5-3--------------------5-3---3h5--------|
G|--4-4-5-------5-------5-4\2-2--2-2-4--5------5-----5-4----|
D|----------------------------------------------------------|
A|----------------------------------------------------------|
E|----------------------------------------------------------|
Mere dehleez se hokr bahare jab guzarti hai

e|----------------------------------------------------------|
B|---------3------5-5-3--------------------5-3---3h5--------|
G|--4-4-5-------5-------5-4\2-2--2-2-4--5------5-----5-4----|
D|----------------------------------------------------------|
A|----------------------------------------------------------|
E|----------------------------------------------------------|
Yahan kya dhoop kya sawan hawaayein bhi barasti hai



e|----------------------------------------------------------|
B|----------------------------------------------------------|
G|----------------------------4-4-2-4/5-4-------------------|
D|--------4/5-2--2-2/4-2\0-4--------------5\4--4-5/7-5\4-2--|
A|--2-2-5---------------------------------------------------|
E|----------------------------------------------------------|
Humein pucho kya hota hai bina dil ke jiye jaana

e|----------------------------------------------------------|
B|----------------------------------------------------------|
G|----------------------------4-4-2-4/5-4-------------------|
D|--------4/5-2--2-2/4-2\0-4--------------5\4--4-5/7-5\4-2--|
A|--2-2-5---------------------------------------------------|
E|----------------------------------------------------------|
Bahut aayi gayi yaadein magar ish baar tum hi aana



Stanza

e|----------------------------------------------------------|
B|---------3------5-5-3--------------------5-3---3h5--------|
G|--4-4-5-------5-------5-4\2-2--2-2-4--5------5-----5-4----|
D|----------------------------------------------------------|
A|----------------------------------------------------------|
E|----------------------------------------------------------|
Koi toh raah hogi jo mere ghar ko aati hai


e|----------------------------------------------------------|
B|---------3------5-5-3--------------------5-3---3h5--------|
G|--4-4-5-------5-------5-4\2-2--2-2-4--5------5-----5-4----|
D|----------------------------------------------------------|
A|----------------------------------------------------------|
E|----------------------------------------------------------|
Karo peecha sadaaon ka suno kya kehna chahti hai


e|----------------------------------------------------------|
B|----------------------------------------------------------|
G|----------------------------4-4-2-4/5-4-------------------|
D|--------4/5-2--2-2/4-2\0-4--------------5\4--4-5/7-5\4-2--|
A|--2-2-5---------------------------------------------------|
E|----------------------------------------------------------|
Tum aaoge mujhe milne khabar ye bhi tum i lana

e|----------------------------------------------------------|
B|----------------------------------------------------------|
G|----------------------------4-4-2-4/5-4-------------------|
D|--------4/5-2--2-2/4-2\0-4--------------5\4--4-5/7-5\4-2--|
A|--2-2-5---------------------------------------------------|
E|----------------------------------------------------------|
Bahut aayi gayi yaadein magar ish baar tum hi aana


Song Credit

Leave a Reply

Loading...