Naino Ki To Baat Tab by ALTAF SAYYED

This is the most popular song on YouTube which is also searched as HUM DEEWANA HAI AAPKE  (Mera Sanam ) album. The song is composed by Chandra Surya and sang by Altaf Sayyed.

Naino Ki To Baat

Track Info

  • Song: NAINO KI TO BAAT (TU MERA HAI SANAM)
  • Singer: ALTAF SAYYED
  • Music: CHANDRA SURYA
  • Lyrics: AKHTAR NAFE
  • Music Labels: Affection Music Records

Key Info 

  • Tuning: Standard(EADGBE)
  • Key: Bbm
  • BPM: 91

E|------------------------|
B|------------------------|
G|--6-5-5-----------------|
D|--------8-8-----8-------|
A|-------------8-9-9-8-6--|
E|------------------------|
Naino ki to baat naina jaane hai

E|------------------------------|
B|-------------------7-6--------|
G|----------5--5-5-6-----6-5----|
D|------6-6---------------------|
A|--6-6-------------------------|
E|------------------------------|
Sapno ke raaj to Raina jaane hai
Naino ki to baat Naina jaane hai
Sapno ke raaj to Raina jaane hai


E|----------------------------------|
B|-----------------------7-7-6------|
G|--6-6-6-8-8/10-10-10-8-------8-8--|
D|----------------------------------|
A|----------------------------------|
E|----------------------------------|
Dil ki ye baatein Dhadkan jaane hai


E|-----------------------------|
B|--------------9-9-7-7-6-6-6--|
G|-------5-5/8-8---------------|
D|--6-6-6----------------------|
A|-----------------------------|
E|-----------------------------|
Jispe gujre wo tan jaane hai



E|------------------------|
B|--6---------------------|
G|------5-6-6--5-5--------|
D|----8-------8-8--8-8-6--|
A|------------------------|
E|------------------------|
Hum deewane Ho gaye hai apke

E|---------------------------|
B|---------------------------|
G|---6-6-5-5-----6-5h6-------|
D|-----------8-6-------8-8---|
A|--8------------------------|
E|---------------------------|
Hum to bas itna Jane hai.


E|--------------------------|
B|--------------------------|
G|---------6-5----------6-5-|
D|--8-6-8-8-----8-6-8-8-----|
A|--------------------------|
E|--------------------------|
Tu mera hai sanam Tu hi mera humdum


E|----------------------------|
B|----------------------------|
G|------------6-5-------------|
D|--8-6-6/8-8-----8-6---6-----|
A|--------------------9--9-8--|
E|----------------------------|
Tere sang jeena Ab saato janam

Stanza1
E|------------------------|
B|------------------------|
G|--6-5-5--------8-5------|
D|-------8-8--8-8----8-6--|
A|------------------------|
E|------------------------|
   Nazrein ye  a.apki


E|-----------------------| B|-----------------------| G|-----------------------| D|-------6h8------7-7/8--| A|--9-9-9----9-8-8-------| E|-----------------------| Karne lagi hosyariyan Kahi Kar de na ye Mere liye duswariyaan

E|--------------------------| B|---------------------6/7--| G|--6-6-6/8-8/10-10-8-8-----| D|--------------------------| A|--------------------------| E|--------------------------|      Nazrein ye apki

E|-------------------------| B|-------------------------| G|--5-5-6-6/8-8-6-8-6-6-6--| D|-------------------------| A|-------------------------| E|-------------------------|  Karne lagi hosyariyan

E|--------------------------------| B|--------------------------------| G|--6-6-6-8-8/10-10-10-8-8-10/11--| D|--------------------------------| A|--------------------------------| E|--------------------------------|   Kahi Kar de na ye

E|-------------------------| B|-------------------------| G|--5-5-6-6/8-8-6-8-6-6-6--| D|-------------------------| A|-------------------------| E|-------------------------|     Mere liye duswariyaan



Leave a Comment

Your email address will not be published.


Scroll to Top