Easy – Dil De Diya Hai Guitar Tab | Masti | Anand Raj Anand

Introducing to play Dil De Diya Hai Guitar Tab or Solo lesson.

Dil De Diya Hai Guitar Tab

  • Scale: C Minor
E|-----------------------------------|
B|---------------6-------------------|
G|--5--7-8-7-5-7---8-----------------|
D|-----------------------------------|
A|-----------------------------------|
E|-----------------------------------|
Dil de diya hai
E|-----------------------------------|
B|-----------------------------------|
G|------5-7-5---5-7-5-4--------------|
D|--8-8-------8---------6------------|
A|-----------------------------------|
E|-----------------------------------|
Jaan tumhe de e enge
E|-----------------------------------|
B|---------------6-------------------|
G|--5--7-8-7-5-7---8-7---------------|
D|-----------------------------------|
A|-----------------------------------|
E|-----------------------------------|
Dil De Diya Hai  
E|-----------------------------------|
B|-----------------------------------|
G|---5-7--5---5-7-5-4----------------|
D|8---------8---------6--------------|
A|-----------------------------------|
E|-----------------------------------|
Jaan Tumhe Denge
E|-----------------------------------|
B|-----------------------------------|
G|--5-5-5----------------------------|
D|6-------8-6-6/8--6-5---------------|
A|-----------------------------------|
E|-----------------------------------| X 2
Daga Nahi Karenge Sanam
E|-----------------------------------|
B|--------6-8-6---------------6------|
G|-8--8-8---------7-7--7-7-8---8-7-5-|
D|-----------------------------------|
A|-----------------------------------|
E|-----------------------------------| 
Rab Di Kasam Yaraa Rab Di Kasam
E|-----------------------------------|
B|---------------6-------------------|
G|--5--7-8-7-5-7---8-7---------------|
D|-----------------------------------|
A|-----------------------------------|
E|-----------------------------------|
Dil De Diya Hai

  
E|-----------------------------------|
B|-----------------------------------|
G|---5-7--5---5-7-5-4----------------|
D|8---------8---------6--------------|
A|-----------------------------------|
E|-----------------------------------|
Jaan Tumhe Denge

E|-----------------------------------|
B|-----------------------------------|
G|--5-5-5----------------------------|
D|6-------8-6-6/8--6-5---------------|
A|-----------------------------------|
E|-----------------------------------|
Daga nahi karenge sanam

[Stanza1]


E|----------------------------------
B|----------------------------------
G|--5-5-75-5-75-5-75-5-5/7-5--------
D|------------------------------6--6
A|----------------------------------
E|----------------------------------
Rukh Zindagi Ne More Liya Kaisa
E|---------------------------------|
B|---------------------------------|
G|--5-5/7-7-5-5--------------------|
D|6-------------6-6-5-3-5----------|
A|---------------------------------|
E|---------------------------------|
Humne Socha Nahi Tha Kabhi Aisa
E|----------------------------------
B|----------------------------------
G|5--75-5-75-5-75-5-5/7-5-----------
D|---------------------------6/8-8-6
A|----------------------------------
E|----------------------------------
Rukh Zindagi Ne More Liya Kaisa
 
E|---------------------------------|
B|---------------------------------|
G|--5-5/7-7-5-5--------------------|
D|6-------------6-6-5-3-5----------|
A|---------------------------------|
E|---------------------------------|
Humne Socha Nahi Tha Kabhi Aisa
E|---------------------------------|
B|---------------------------------|
G|--5-7-5-5-7-5------8-8/10-7-5-5--|
D|--------------6--6---------------|
A|---------------------------------|
E|---------------------------------|
Ata Nahi Yakeen Kya Se Kya Ho Gaya
E|----------------------------------
B|----------------------------------
G|-7-5-5-7-5-5--------8-8/10-7-5-5--
D|-------------6-6--6---------------
A|----------------------------------
E|----------------------------------
Kis Tarha Mein Tumse Bewafa Ho Gaya
E|---------------------------------|
B|---------------------------------|
G|---------------------------------|
D|8-6/8-5--------------------------|
A|---------------------------------|
E|---------------------------------|
Aa aa
E|---------------------------------|
B|---------------6-----------------|
G|--5--7-8-7-5-7---8-7-------------|
D|---------------------------------|
A|---------------------------------|
E|---------------------------------|
Insaaf Kar Do
E|-----------------------------------|
B|-----------------------------------|
G|---5-7--5---5-7-5-4----------------|
D|8---------8---------6--------------|
A|-----------------------------------|
E|-----------------------------------|
Mujhe Maaf Kar Do
E|-----------------------------------|
B|-----------------------------------|
G|--5-5-5----------------------------|
D|6-------8-6-6/8-6-5----------------|
A|-----------------------------------|
E|-----------------------------------|
Itna Hi Kar Do Karam
E|---------------------------------|
B|---------------6-----------------|
G|--5--7-8-7-5-7---8-7-------------|
D|---------------------------------|
A|---------------------------------|
E|---------------------------------|
Dil De Diya Hai
E|-----------------------------------|
B|-----------------------------------|
G|---5-7--5---5-7-5-4----------------|
D|8---------8---------6--------------|
A|-----------------------------------|
E|-----------------------------------|
Jaan Tumhe Denge
E|-----------------------------------|
B|-----------------------------------|
G|--5-5-5----------------------------|
D|6-------8-6-6/8--6-5---------------|
A|-----------------------------------|
E|-----------------------------------|
Daga Nahi Karenge Sanam
 Same as Stanza 1
 
Awargi Mein Ban Gaya Deewana
Maine Kyun Saadgi Ko nahi Jaana
Awargi Mein Ban Gaya Deewana
Maine Kyun Saadgi Ko nahi Jaan
 
Chahat Yehi Ke Ish Kadar Pyar Dun
Kadmon Mein Tere Mein Do Jahan War dun
Chain Mera Le Lo Khushi Meri Le Lo
De Do Mujhe De Do Sare Gam
Dil De Diya Hai Jaan Tumhein Denge
Daga Nahin Karenge Sanam
 
 
 
Mere Ashq Keh rahi Meri Kahani
Ishe Samjho Na Sirf Tum Pani
Mere Ashq Keh rahe Meri Kahani
Ishe Samjho Na Sirf Tum Pani
Ro Ro Ke Aanshuo Ke Daag Dhul Jayenge
Inme Wafa Ke Rang Aaj Ghul Jayenge
Paas Tum Rahogi Bhul Ab Na Ab Hogi
Karunga Na Tumpe Sitam
 
Dil De Diya Hai Jaan Tumhein Denge
Daga Nahin Karenge Sanam
Rab Di Kasam Yaraa Rab Di Kasam
Dil De Diya Hai Jaan Tumhein Denge
Daga Nahin Karenge Sanam

 

 

Dil De Diya Hai Traci Info

  • Song: Dil De Diya Hai
  • Film: Masti
  • Singer: Anand Raj Anand
  • Music: Anand Raj Anand
  • Language: Hindi
  • Country India

Leave a Reply

Loading...