Papa Kehte Hain Intro Tab| Qayamat Se Qayamat Tak

Papa Kehte Hain Intro Tab & Prelude Tab

Learn To play Papa Kehte Hain Intro Tab. & Prelude Tab

Track Info

Papa Kehte Hai Guitar Chords
Amir Khan
  • Song: Papa Kehte Hai
  • Film: Qayamat Se Qayamat Tak
  • Star Cast: Amir Khan Juhi Chawla
  • Singer: Udit Narayan
  • Music: Anand Milind
  • Lyrics: Majrooh Sultanpuri
  • Music Label: T-Series

Introducing Papa Kehte Hain Intro Lesson
“Papa Kehte Hain” a perfect song to perform in college farewell party. So let’s learn to play Papa Kehte Hain Intro Lesson
So we play this song on the C major scale.

[C] [Am] [F] [G]
[C] [Am] [F] [G]

Trumpet
E|------5-----5----------------------|
B|----5---8-----------------5-5-6-5--|
G|--5-----------7/9-5-7---5----------|
D|----------------------7------------|
A|-----------------------------------|
E|-----------------------------------|


E|--------5-----5--------------------|
B|------5---8-----------------5-5-6-5|
G|5---5-----------7/9-5-7---5--------|
D|--5---------------------7----------|
A|-----------------------------------|
E|-----------------------------------|

Guitar Lead 

E|5----5---5---5----5---5-7-7/8-7-5--|
B|---8---8---8----8---8--------------|
G|-----------------------------------|
D|-----------------------------------|
A|-----------------------------------|
E|-----------------------------------|


E|-----------------------------------|
B|--6--5-6-5-6-5-6--5-6-5-6-8--------|
G|-----------------------------------|
D|-----------------------------------|
A|-----------------------------------|
E|-----------------------------------|

Prelude 2nd Stanza E|4-4-5-5-5----5---5---5----5---5-7-7/8-7-5-| B|----------8---8---8----8---8--------------| G|------------------------------------------| D|------------------------------------------| A|------------------------------------------| E|------------------------------------------| E|------------------------------------------| B|--6--5-6-5-6-5-6--5-6-5-6-6/7-7/8-8-------| G|------------------------------------------| D|------------------------------------------| A|------------------------------------------| E|------------------------------------------|

Learn To Play

Papa Kehte Hain Guitar Chords
Gazab Ka Hai Din Guitar Chords
Aye Mere Humsafar Guitar Chords

Leave a Comment

Your email address will not be published.


Scroll to Top