Steve Lacy – Some Solo Tab

On the 24th of February 2017, the track was released by Steve Lacy.

Some

Track Info

Key Info

  • Tuning: Standard( EADGBe)
  • Key: G
[Solo] 
 
e|---------------------------------------------------------------------------|
B|--15b17-15~--13-12---------------------------------------------------------|
G|-------------------12-------12----(14)-------------------12-14-14b16br14---|
D|----------------------12-14------------------------12h14-------------------|
A|---------------------------------------------------------------------------|
E|---------------------------------------------------------------------------|
 
e|---------------------------------------------------------------------------|
B|--15b17-15~--13-12----12-15-12---------------------10h12p10----------------|
G|-------------------14---------------------------------------12-12\11-------|
D|---------------------------------------------------------------------------|
A|---------------------------------------------------------------------------|
E|---------------------------------------------------------------------------|
 
 
===================
| \ Slide down 
| b Bend
| (n) Ghost note
| h Hammer-on | p Pull-off | br Bend release | ~ Vibrato ===================

Leave a Comment

Your email address will not be published.


Scroll to Top