Leith Ross – We’ll Never Have Sex Tab

The track is on the D major key, to play this tab dropdown the 6th string half steps down (D A D G B E).

Leith Ross - We'll Never Have Sex Tab 1

Track Info

Key Info 

  • Tuning: Standard(D A D G B E)
  • Key: D
  • BPM: 171
[Verse 1]
 
e|---------------------------------------------------------------------------------------|
B|---------------------------------------------------------------------------------------|
G|---------------------------------------------------------------------------------------|
D|-------0---------------------0--------------------0-----------0-------------0----------|
A|----0---------2-----------4----------0--------0------------2-----------4-----------0---|
D|-0--------0------------0----------0-------0-------------0----------0------------0------|
 
 
[Chorus]
 
e|--------------------------------------------------------------------------------|
B|--------------------------------------------------------------------------------|
G|--------------------------------------------------------------------------------|
D|-------0----------------------0-----------------0--------4----------4-----------|
A|----0-----------2----------4---------0------0---------4---------5-------5-------|
D|-0----------0---------0----------0------0---------4---------5--------------5----|
 
e|--------------------------------------------------------------------------|
B|--------------------------------------------------------------------------|
G|--------------------------------------------------------------------------|
D|-------0-------------------0--------------------0-----------0----------0--|
A|----0---------2--------4-----------0---------0-----------0---------0------|
D|-0---------0-------0------------0--------5-----------7---------0----------|
 

 
[Verse 2]
 
e|-------------------------------------------------------------------------------------|
B|-------------------------------------------------------------------------------------|
G|-------------------------------------------------------------------------------------|
D|-------0-------------------0--------------------0-----------0-------------0----------|
A|----0---------2---------4----------0--------0------------2-----------4-----------0---|
D|-0--------0----------0----------0-------0-------------0----------0------------0------|
 

 
[Chorus]
 
e|--------------------------------------------------------------------------------|
B|--------------------------------------------------------------------------------|
G|--------------------------------------------------------------------------------|
D|-------0----------------------0-----------------0--------4----------4-----------|
A|----0-----------2----------4---------0------0---------4---------5-------5-------|
D|-0----------0---------0----------0------0---------4---------5--------------5----|
 
e|--------------------------------------------------------------------------|
B|--------------------------------------------------------------------------|
G|--------------------------------------------------------------------------|
D|-------0-------------------0--------------------0-----------0----------0--|
A|----0---------2--------4-----------0---------0-----------0---------0------|
D|-0---------0-------0------------0--------5-----------7---------0----------|
 

[Verse 3]
 
e|---------------------------------------------------------------------------------------|
B|---------------------------------------------------------------------------------------|
G|---------------------------------------------------------------------------------------|
D|-------0---------------------0--------------------0-----------0-------------0----------|
A|----0---------2-----------4----------0--------0------------2-----------4-----------0---|
D|-0--------0------------0----------0-------0-------------0----------0------------0------|
 
e|---------------------------------------------------------------------------------------|
B|---------------------------------------------------------------------------------------|
G|---------------------------------------------------------------------------------------|
D|-------0---------------------0--------------------0-----------0------------------------|
A|----0---------2-----------4----------0--------0------------0---------------------------|
D|-0--------0------------0----------0-------5-------------7--------------0---------------|
 

Leave a Comment

Your email address will not be published.


Scroll to Top