Amake Amar Moto Thakte Dao Guitar Tab | Autograph | Anupam Roy

Amake Amar Moto Thakte Dao Guitar Tab

We know that the song, Amake Amar Moto Thakte Dao is everyone’s favorite song. Previously we published Amake Amar Moto Thakte Dao Guitar chords version. After getting many requests here we publishing its Guitar solo lesson hope that you’ll enjoy the lesson.
Introducing Amake Amar Moto Thakte Dao Guitar Tab. 
Scale for the song is G major. So to play this solo easily you must know how to play G major scale.

Song Credit

Anupam Roy‘s one of the best composition. The song is sung composed and written by him for the film Autograph, Starring Prasenjit Indraneil Dasgupta and Nandana Sen.

Amake Amar Moto Thakte Dao Guitar Tab
Amake Amar Moto Guitar Tab

Song: Amake Amar Moto Thakte Dao
Film: Autograph
Singer: Anupam Roy
Music: Anupam Roy
Lyrics: Anupam Roy
Language: Bengali
Cast: Prasenjit, Indraneil Dasgupta,
Nandana Sen
Music Label: SVF Music

Other Version
Amake amar Moto Thakte dao Guitar Chords
Amake amar Moto Thakte dao Intro Lesson


E|-----------------------------------|
B|----3-3-3-3--3-----3-5\3-----------|
G|--4------------4-4-----------------|
D|-----------------------------------|
A|-----------------------------------|
E|-----------------------------------|
Amake amar moto thakte dao

E|-----------------------------------|
B|--3-----3-3-3-3--3-3-3-------------|
G|----4-4----------------5-5-5-4-----|
D|-----------------------------------|
A|-----------------------------------|
E|-----------------------------------|
Ami nijeke nijer moto guchiye niyechi

E|-----------------------------------|
B|----3-3-3-3--3-----3-5\3-----------|
G|--4------------4-4-----------------|
D|-----------------------------------|
A|-----------------------------------|
E|-----------------------------------|
Amake amar moto thakte dao

E|-----------------------------------|
B|--3-----3-3-3-3--3-3-3-------------|
G|----4-4----------------5-5-5-4-4---|
D|-----------------------------------|
A|-----------------------------------|
E|-----------------------------------|
Ami nijeke nijer moto guchiye niyechi


E|-----------------------------------|
B|-----------------------3-3---------|
G|--4-2-2-4-4-4-4--4-4-4-------------|
D|---------------------------5-5-----|
A|-----------------------------------|
E|-----------------------------------|
Jeta Chilona Chilona Seta Na Paaoai Thak


E|-----------------------------------|
B|-----------------------------------|
G|--------------4-2h4----------------|
D|--5--5-5-5--5----------------------|
A|-----------------------------------|
E|-----------------------------------|
Sab Pele Noshto Jeeban


E|-----------------------------------|
B|----3-3-3-3-3----3-3-3-5\3---------|
G|--4-----------4-4------------------|
D|-----------------------------------|
A|-----------------------------------|
E|-----------------------------------|
Tomar Oi Duniyar Jhapsa Alor


E|-----------------------------------|
B|--3-----3-3-3-3-3-3-3-3------------|
G|----4-4-----------------5-5-5-5----|
D|-----------------------------------|
A|-----------------------------------|
E|-----------------------------------|
Kichu Sondher Guro Hawa Kancher Moto


E|-----------------------------------|
B|-----------------------3-3---------|
G|--4-2-2-4-4-4-4--4-4-4-------------|
D|---------------------------5-5-----|
A|-----------------------------------|
E|-----------------------------------|
Jodi Ure Jete Chao Tobe Ga Bhasiye Dao


E|-----------------------------------|
B|-----------------------------------|
G|--------------2/4-2----------------|
D|--5--5-5-5--5-------5\4-5----------|
A|-----------------------------------|
E|-----------------------------------|
Durbine Chokh Rakhbona Na Na


E|-----------------------------------|
B|-----------------------------------|
G|--4--2---------4--2----------------|
D|--------5-4-2-------5\4-5----------|
A|-----------------------------------|
E|-----------------------------------|
Na Na Na Na Na Na Na Na


E|-----------------------------------|
B|-----------------------------------|
G|---4-4-4--4-2-5-5-4-2-2-2-2-2---4-4|
D|------------------------------5----|
A|-5---------------------------------|
E|-----------------------------------|
Ei Jahaj Mashtulo Charkhar Tobu
Golpo Likchi Banchbar

E|--------------------------------------|
B|--------------------------------------|
G|-----4-4-4-4-2-5-5--4-2-2-2-2-2---4-4-|
D|--------------------------------5-----|
A|-5-5----------------------------------|
E|--------------------------------------|
AmiRakhte Chai Na Ar Tar Kono Raat
Dupurer Abdar

E|-----------------------------------|
B|-----------------------------------|
G|4-------4-----------2---2/5--2-----|
D|--5-5-5---2-2---5-5---5------------|
A|-----------------------------------|
E|-----------------------------------|
Tai Chesta Korchi Bar Bar Santre
Par Khojar Ar


Verse1
E|-----------------------------------|
B|----3-3-3-3--3-----3-5\3-----------|
G|--4------------4-4-----------------|
D|-----------------------------------|
A|-----------------------------------|
E|-----------------------------------|
Kokhono Akash Beye Chup Kore

E|-----------------------------------|
B|--3-----3-3-3-3--3-3-3-------------|
G|----4-4----------------5-5---------|
D|-----------------------------------|
A|-----------------------------------|
E|-----------------------------------|
Jodi Neme Aase Bhalobasa Chup Kore

E|-----------------------------------|
B|-------------------3-3-------------|
G|-2-4-4-4-4-4-4-4-4-----------------|
D|----------------------5-5----------|
A|-----------------------------------|
E|-----------------------------------|
Chokh Bhanga Ghume Tumi Khujo Na Amai

E|-----------------------------------|
B|-----------------------------------|
G|----------------4-2----------------|
D|--5-5-5-5-5-5-5--------------------|
A|-----------------------------------|
E|-----------------------------------|
Ashe Pashe Ami Ar Nei

E|-----------------------------------|
B|----3-3-3--3-3----3-3-5\3----------|
G|--4------------4-4-----------------|
D|-----------------------------------|
A|-----------------------------------|
E|-----------------------------------|
Amar Jonno Alo Jelo Na Keu

E|-----------------------------------|
B|--3-----3-3--3-3-3-3-3-------------|
G|----4-4----------------5-5-5\4-----|
D|-----------------------------------|
A|-----------------------------------|
E|-----------------------------------|
Ami Manusher Samudre Gunechi Dheu


E|-----------------------------------|
B|-----------------------3-3---------|
G|-4\2--2-4-4--4--4-4--4-------------|
D|---------------------------5-5-----|
A|-----------------------------------|
E|-----------------------------------|
Stationer chottore Hariye Gechi

E|-----------------------------------|
B|-----------------------------------|
G|---------------4/2--2--------------|
D|--5--5-5-5--5---------5\4-5--------|
A|-----------------------------------|
E|-----------------------------------|
Shes traine Ghare Phirbona Na Na

E|-----------------------------------|
B|-----------------------------------|
G|--4--2---------4--2----------------|
D|--------5-4-2-------5\4-5----------|
A|-----------------------------------|
E|-----------------------------------|
Na Na Na Na Na Na Na Na


E|-----------------------------------|
B|-----------------------------------|
G|----4-4-4-4-2-5-5-4-2-2-2-2-2---4-4|
D|------------------------------5----|
A|-5---------------------------------|
E|-----------------------------------|
Ei Jahaj Mashtulo Charkhar Tobu
Golpo Likchi Banchbar

E|----------------------------------
B|----------------------------------
G|-----4-4-4-4-2-5-5--4-2-2-2-2-2---
D|----------------------------------
A|-5-5------------------------------
E|----------------------------------
AmiRakhte Chai Na Ar Tar Kono Raat
Dupurer

E|-----------------------------------|
B|-----------------------------------|
G|--4-4------------------------------|
D|5----------------------------------|
A|-----------------------------------|
E|-----------------------------------|
Abdar

E|-----------------------------------|
B|-----------------------------------|
G|4-------4-----------2---2/4--2-----|
D|--5-5-5---2-2---5-5---5------------|
A|-----------------------------------|
E|-----------------------------------|
Tai Chesta Korchi Bar Bar Santre
Par Khojar Ar

E|-----------------------------------|
B|-------------3----------3---------3|
G|--2/4--2-4-5---4--2-4-5---4--2-4-5-|
D|-----------------------------------|
A|-----------------------------------|
E|-----------------------------------|
Na Na Na Na Na Na... Na Na Na Na Na
Na Na Na Na

E|-----------------------------------|
B|-------------3----------3---------3|
G|--2/4--2-4-5---4--2-4-5---4--2-4-5-|
D|-----------------------------------|
A|-----------------------------------|
E|-----------------------------------|
Na Na Na Na Na Na... Na Na Na Na Na
Na Na Na Na


Verse2
E|-----------------------------------|
B|----3--3-3-3-3---3-3-3/5-----------|
G|--4------------4-------------------|
D|-----------------------------------|
A|-----------------------------------|
E|-----------------------------------|
Tomar Rokte Aache Sopno Joto

E|-----------------------------------|
B|--3-----3-3-3-3--3-3-3-------------|
G|----4-4----------------5-5---------|
D|-----------------------------------|
A|-----------------------------------|
E|-----------------------------------|
Tara Chutche Ratridin Nijer Moto

E|-----------------------------------|
B|-------------------3---------------|
G|-2-4-4-4-4--4-4--4-----------------|
D|---------------------5-5-----------|
A|-----------------------------------|
E|-----------------------------------|
Kokhon Somoy Pele Ektu Bhebo

E|-----------------------------------|
B|-----------------------------------|
G|---------------4-2-----------------|
D|--5--5-5-5-5-5---------------------|
A|-----------------------------------|
E|-----------------------------------|
Anguler Phanke Aami Koi

E|-----------------------------------|
B|----3-3-3-3--3----3-3-5\3----------|
G|--4------------4-4-----------------|
D|-----------------------------------|
A|-----------------------------------|
E|-----------------------------------|
Hiseber Bhide Aami Chai Na Chute

E|-----------------------------------|
B|--3-----3-3--3-3-3-3-3-------------|
G|----4-4----------------5-5-5\4-----|
D|-----------------------------------|
A|-----------------------------------|
E|-----------------------------------|
Joto Shukno Peyaj Kali Freezer Sheete

E|-----------------------------------|
B|-----------------------3-3---------|
G|-4\2--2-4-4--4--4-4--4-------------|
D|---------------------------5-5-----|
A|-----------------------------------|
E|-----------------------------------|
Aami Obelar Daal Bhate Phuriye Gechi

E|-----------------------------------|
B|-----------------------------------|
G|---------------4/2--2--------------|
D|--5--5-5-5--5---------5\4-5--------|
A|-----------------------------------|
E|-----------------------------------|
Gelasser Jole Bhasbo Na Na Na

E|-----------------------------------|
B|-----------------------------------|
G|----4-4-4-4-2-5-5-4-2-2-2-2-2---4-4|
D|------------------------------5----|
A|-5---------------------------------|
E|-----------------------------------|
Ei Jahaj Mashtulo Charkhar Tobu
Golpo Likchi Banchbar

E|--------------------------------------|
B|--------------------------------------|
G|-----4-4-4-4-2-5-5--4-2-2-2-2-2---4-4-|
D|--------------------------------5-----|
A|-5-5----------------------------------|
E|--------------------------------------|
AmiRakhte Chai Na Ar Tar Kono Raat
Dupurer Abdar

E|-----------------------------------|
B|-----------------------------------|
G|4-------4-----------2---2/4--2-----|
D|--5-5-5---2-2---5-5---5------------|
A|-----------------------------------|
E|-----------------------------------|
Tai Chesta Korchi Bar Bar Santre
Par Khojar Ar

E|-----------------------------------|
B|-------------3----------3---------3|
G|--2/4--2-4-5---4--2-4-5---4--2-4-5-|
D|-----------------------------------|
A|-----------------------------------|
E|-----------------------------------|
Na Na Na Na Na Na... Na Na Na Na Na
Na Na Na Na

E|-----------------------------------|
B|-------------3----------3---------3|
G|--2/4--2-4-5---4--2-4-5---4--2-4-5-|
D|-----------------------------------|
A|-----------------------------------|
E|-----------------------------------|
Na Na Na Na Na Na... Na Na Na Na Na
Na Na Na Na

Other Version
Amake Amar Moto Thakte Dao Guitar Chords
Amake Amar Moto Thakte Dao Intro Lesson

Leave a Reply

Loading...