Steve Lacy – Sunshine Tab feat. Foushee

FousheéKarriem Riggins & Steve Lacy produced this track which was released on the 13th of July 2022.

Sunshine

Track info

Key Info 

  • Tuning: Standard(EADGBE)
  • Key: C#m
[Solo]
 
e|--------12-14b~--------12-14br~--------12-14b~-pbr14-12~--------12-14br~-----|
B|--12-14----------12-14-----------12-14--------------------12-14--------------|
G|-----------------------------------------------------------------------------|
D|-----------------------------------------------------------------------------|
A|-----------------------------------------------------------------------------|
E|-----------------------------------------------------------------------------|
 
e|--14p12p11--------------------------17b--19b-pbr19-16----------16h17p16------|
B|-----------pbr14-pbr12-pbr10-9h10p9-------------------19--17h19----------19--|
G|------------------------------------11b--------------------------------------|
D|-----------------------------------------------------------------------------|
A|-----------------------------------------------------------------------------|
E|-----------------------------------------------------------------------------|
 
(background parts come in here)
e|--19--14--14-14--14-14--14-14-------16--16-16--16-16--16-16--14-19--19-19----|
B|---------------------------------14------------------------------------------|
G|------11--11-11--11-11--11-11-------13--13-13--13-13--13-13--11-16--16-16----|
D|-----------------------------------------------------------------------------|
A|-----------------------------------------------------------------------------|
E|-----------------------------------------------------------------------------|
 
e|--19-19--19-19--17-16--16-16--16-16--16-16--14-------------------------------|
B|-----------------------------------------------------------------------------|
G|--16-16--16-16--14-13--13-13--13-13--13-13--11-11p9h11~----------------------|
D|-----------------------------------------------------------------------------|
A|-----------------------------------------------------------------------------|
E|-----------------------------------------------------------------------------|
 
 
[Outro]
 
About 3:59, kinda hard to hear
e|---------------------------------------------------------------------------|
B|---------------------------------------------------------------------------|
G|---------------------------------------------------------------------------|
D|--11-9-----------------------------------------11h13p11~-------------------|
A|-------12-11-9--12-11-9-11-----------9h11p9h11-----------------------------|
E|---------------------------0--2/3/4----------------------------------------|
 
4:14 
e|-----------------------------------------------------------------------------|
B|-----------------------------------------------------------------------------|
G|-------9h11p9-9h11~-9TR11-11brp9--9-8-6--------------------------------------|
D|--9h11-----------------------------------------------------------------------|
A|----------------------------------------9brp7h9/11--12-11-9------------------|
E|------------------------------------------------------------9/11\9/11p7/9\7--|
 
 
=======================
| h   Hammer-on
| p   Pull-off
| r   Release
| b   Bend
| br  Bend release
| pb  Pre-bend
| pbr Pre-bend release
| /   Slide up
| \   Slide down
| ~   Vibrato
| TR  Trill
========================

Leave a Comment

Your email address will not be published.


Scroll to Top