Louis Tomlinson – Bigger Than Me Solo Tab

On the 1st of September 2022, the track was released. The track is in the E major key.

Chords Info

  • Tuning: Standard(E A D G B E)
  • Key: E
  • Capo: 2nd fret
Bigger Than Me

Track Info

[Solo]
 
E|------------------------------------|
B|--5-5-5-5--7-7-7-7--/9-9-9-9--------|
G|------------------------------------|
D|------------------------------------|
A|------------------------------------|
E|------------------------------------|
 
E|------------------------------------|
B|--4-4-4-4---------------------------|
G|------------------------------------|
D|------------------------------------|
A|------------------------------------|
E|------------------------------------|
 
 
E|------------------------------------|
B|--5-5-5-5--7-7-7-7--/9-9-9-9--------|
G|------------------------------------|
D|------------------------------------|
A|------------------------------------|
E|------------------------------------|
 
E|------------------------------------|
B|--4-4-4-4---------------------------|
G|------------------------------------|
D|------------------------------------|
A|------------------------------------|
E|------------------------------------|
 
 
[Solo]
 
E|------------------------------------|
B|--5-5-5-5-5-5-5-5-5-4-4-4-4-4-4-4-4-|
G|------------------------------------|
D|------------------------------------|
A|------------------------------------|
E|------------------------------------|
 
E|------------------------------------|
B|-4----------------------------------|
G|------------------------------------|
D|------------------------------------|
A|------------------------------------|
E|------------------------------------|
 
 
[Solo]
 
E|------------------------------------|
B|-5-5-5-5--7-7-7-7--/9-9-9-9---------|
G|------------------------------------|
D|------------------------------------|
A|------------------------------------|
E|------------------------------------|
 
E|------------------------------------|
B|-4-4-4-4----------------------------|
G|------------------------------------|
D|------------------------------------|
A|------------------------------------|
E|------------------------------------|
 
 
E|------------------------------------|
B|--5-5-5-5--7-7-7-7--/9-9-9-9--------|
G|------------------------------------|
D|------------------------------------|
A|------------------------------------|
E|------------------------------------|
 
E|------------------------------------|
B|--4-4-4-4---------------------------|
G|------------------------------------|
D|------------------------------------|
A|------------------------------------|
E|------------------------------------|
 
 
[Solo]
 
E|------------------------------------|
B|--5-5-5-5-5-5-5-5-5--4-4-4-4-4-4-4--|
G|------------------------------------|
D|------------------------------------|
A|------------------------------------|
E|------------------------------------|
 
E|------------------------------------|
B|--4---------------------------------|
G|------------------------------------|
D|------------------------------------|
A|------------------------------------|
E|------------------------------------|

Bigger Than Me Chords

If you like the work please write down your experience in the comment section, or if you have any suggestions/corrections please let us know in the comment section.

Leave a Comment

Your email address will not be published.


Scroll to Top