The Joker And The Queen Tab by Ed Sheeran

The key of the track on C major.

The Joker And The Queen tab

Track Info

Key Info 

  • Tuning: Standard( E A D G B E )
  • Key: C
  • BPM: 134
[Verse 1]
e|-----------|---0---|---------|-----1-----|---------|-----------------------|
B|-0h1p0-----|---0---|---0h1p0-|-----3-----|-----0-1-|-1---1---0-0h1p0-------|
G|-------0---|-0---0-|---------|-2-----2---|-2-2-----|-----2-----------0-----|
D|---------2-|-------|---------|-0-3-----0-|---------|---3---3---------------|
A|---------3-|-------|-3-------|-----------|---------|-----------------------|
E|-----------|-------|---------|-----------|---------|-1-------3-------------|
 
e|-----0-------------|-----0-------------|----1-------------|----------------|
B|-----0-----0h1p0---|-----0-----0h1p0---|----3---------0-1-|-1---1---0-3-3-3|
G|---0---0---------0-|---0---0---------0-|-2----2---2-2-----|-----2-----0----|
D|-2-----------------|-2-----------------|-0-3----0---------|---3---3---0----|
A|-3-------3---------|-3-------3---------|------------------|----------------|
E|-------------------|-------------------|------------------|-1-------3------|
 
e|---------0-----------------------------------------------------------------|
B|-3-------------------------------------------------------------------------|
G|-----0---------------------------------------------------------------------|
D|---2---2---2---------------------------------------------------------------|
A|-3-------3-----------------------------------------------------------------|
E|---------------------------------------------------------------------------|
 
 
[Chorus]
 
e|-3-------------------0-|-1-------------1-----|-----------------0-1---------|
B|-3-1---1-----1-1-1-3---|-----3/5-3-----3-1-3-|-----3-----3-3-3-------------|
G|---2---2---------------|---2---------2-------|-----0-----------------------|
D|-----2---2-------------|-0---------0---------|---0---0---------------------|
A|-2-0-------0-----------|---------------------|-----------------------------|
E|-----------------------|---------------------|-3-------3-------------------|
 
e|-1-----0-0---3-|---------------0-|-----------------1-----|---------0-------|
B|-----1-----1-3-|-1---1-----1-3---|-3---3/5-5\3-----3-1-3-|-----------3-1---|
G|-----0-----0---|-2---2-----------|---2-----------2-------|-----0-----------|
D|---2-----------|---2-----2-------|-0-----------0---------|---0---0---------|
A|-3-------3---2-|-0-----0---------|-----------------------|-----------------|
E|---------------|-----------------|-----------------------|-3-------3-------|
 
e|-----0---------------------------------------------------------------------|
B|-----0---------------------------------------------------------------------|
G|---0---0-------------------------------------------------------------------|
D|---------------------------------------------------------------------------|
A|-3-------------------------------------------------------------------------|
E|---------------------------------------------------------------------------|
 
 
[Verse 2]
 
e|-----------|---0---|---------|-----1-----|---------|-----------------------|
B|-0h1p0-----|---0---|---0h1p0-|-----3-----|-----0-1-|-1---1---0-0h1p0-------|
G|-------0---|-0---0-|---------|-2-----2---|-2-2-----|-----2-----------0-----|
D|---------2-|-------|---------|-0-3-----0-|---------|---3---3---------------|
A|---------3-|-------|-3-------|-----------|---------|-----------------------|
E|-----------|-------|---------|-----------|---------|-1-------3-------------|
 
e|-----0-------------|-----0-------------|----1-------------|----------------|
B|-----0-----0h1p0---|-----0-----0h1p0---|----3---------0-1-|-1---1---0-3-3-3|
G|---0---0---------0-|---0---0---------0-|-2----2---2-2-----|-----2-----0----|
D|-2-----------------|-2-----------------|-0-3----0---------|---3---3---0----|
A|-3-------3---------|-3-------3---------|------------------|----------------|
E|-------------------|-------------------|------------------|-1-------3------|
 
e|---------0-----------------------------------------------------------------|
B|-3-------------------------------------------------------------------------|
G|-----0---------------------------------------------------------------------|
D|---2---2---2---------------------------------------------------------------|
A|-3-------3-----------------------------------------------------------------|
E|---------------------------------------------------------------------------|
 
 
[Chorus]
 
e|-3-------------------0-|-1-------------1-----|-----------------0-1---------|
B|-3-1---1-----1-1-1-3---|-----3/5-3-----3-1-3-|-----3-----3-3-3-------------|
G|---2---2---------------|---2---------2-------|-----0-----------------------|
D|-----2---2-------------|-0---------0---------|---0---0---------------------|
A|-2-0-------0-----------|---------------------|-----------------------------|
E|-----------------------|---------------------|-3-------3-------------------|
 
e|-1-----0-0---3-|---------------0-|-----------------1-----|---------0-------|
B|-----1-----1-3-|-1---1-----1-3---|-3---3/5-5\3-----3-1-3-|-----------3-1---|
G|-----0-----0---|-2---2-----------|---2-----------2-------|-----0-----------|
D|---2-----------|---2-----2-------|-0-----------0---------|---0---0---------|
A|-3-------3---2-|-0-----0---------|-----------------------|-----------------|
E|---------------|-----------------|-----------------------|-3-------3-------|
 
e|-----0---------------------------------------------------------------------|
B|-----0---------------------------------------------------------------------|
G|---0---0-------------------------------------------------------------------|
D|---------------------------------------------------------------------------|
A|-3-------------------------------------------------------------------------|
E|---------------------------------------------------------------------------|
 
 
[Bridge]
 
e|-----------|---0---|---------|-----1-----|---------|-----------------------|
B|-0h1p0-----|---0---|---0h1p0-|-----3-----|-----0-1-|-1---1---0-0h1p0-------|
G|-------0---|-0---0-|---------|-2-----2---|-2-2-----|-----2-----------0-----|
D|---------2-|-------|---------|-0-3-----0-|---------|---3---3---------------|
A|---------3-|-------|-3-------|-----------|---------|-----------------------|
E|-----------|-------|---------|-----------|---------|-1-------3-------------|
 
e|-----0-------------|-----0-------------|----1-------------|----------------|
B|-----0-----0h1p0---|-----0-----0h1p0---|----3---------0-1-|-1---1---0-3-3-3|
G|---0---0---------0-|---0---0---------0-|-2----2---2-2-----|-----2-----0----|
D|-2-----------------|-2-----------------|-0-3----0---------|---3---3---0----|
A|-3-------3---------|-3-------3---------|------------------|----------------|
E|-------------------|-------------------|------------------|-1-------3------|
 
e|---------0-----------------------------------------------------------------|
B|-3-------------------------------------------------------------------------|
G|-----0---------------------------------------------------------------------|
D|---2---2---2---------------------------------------------------------------|
A|-3-------3-----------------------------------------------------------------|
E|---------------------------------------------------------------------------|
 
 
 
[Chorus]
 
e|-3-------------------0-|-1-------------1-----|-----------------0-1---------|
B|-3-1---1-----1-1-1-3---|-----3/5-3-----3-1-3-|-----3-----3-3-3-------------|
G|---2---2---------------|---2---------2-------|-----0-----------------------|
D|-----2---2-------------|-0---------0---------|---0---0---------------------|
A|-2-0-------0-----------|---------------------|-----------------------------|
E|-----------------------|---------------------|-3-------3-------------------|
 
e|-1-----0-0---3-|---------------0-|-----------------1-----|---------0-------|
B|-----1-----1-3-|-1---1-----1-3---|-3---3/5-5\3-----3-1-3-|-----------3-1---|
G|-----0-----0---|-2---2-----------|---2-----------2-------|-----0-----------|
D|---2-----------|---2-----2-------|-0-----------0---------|---0---0---------|
A|-3-------3---2-|-0-----0---------|-----------------------|-----------------|
E|---------------|-----------------|-----------------------|-3-------3-------|
 
e|-----0---------------------------------------------------------------------|
B|-----0---------------------------------------------------------------------|
G|---0---0-------------------------------------------------------------------|
D|---------------------------------------------------------------------------|
A|-3-------------------------------------------------------------------------|
E|---------------------------------------------------------------------------|
 
 
[Outro]
 
e|-^0-----|---------0--------------------------------------------------------|
B|-|1-1-3-|-----------0-1----------------------------------------------------|
G|-|0-----|-----0------------------------------------------------------------|
D|-|2-----|---0---0----------------------------------------------------------|
A|-|3-----|-------------3----------------------------------------------------|
E|--------|-3-------3--------------------------------------------------------|
 
 
 
=================
| \ Slide down 
| / Slide up
| h Hammer-on
| p Pull-off ==================

Leave a Comment

Your email address will not be published.


Scroll to Top