Kings of Leon – The Bandit Tab

The Bandit Intro Tab

The Bandit Track Info

  • Tuning: Standard(EADGBE)
  • Key: Am
  • Difficulty: Novice

[Intro]

e|------------------------------------------------------|
B|------------------------------------------------------|
G|------------------------------------------------------|
D|------------------------------------------------------|
A|----10----10----10--10-10-10----7----7----7----7------|
E|-88----88----88----8--8--8---55---55---55---55--------|
[Verse 1]
 
e|--14--14--14--14--14--14--14--14---14--14--14--14--14--14--14--14|
B|15--15--15--15--15--15--15--15---12--12--12--12--12--12--12--12--|
G|-----------------------------------------------------------------|         X2
D|-----------------------------------------------------------------|
A|-----------------------------------------------------------------|
E|-----------------------------------------------------------------|

[Chorus]
 
e|------------------------2--2--2--2--2----2--2--2---|
B|----------------------3--3--3--3--3--3--0--0--0--0-|
G|---------------------------------------------------|
D|---------------------------------------------------|
A|---------------------------------------------------|
E|---------------------------------------------------|

Suggest any Corrections in comment.

Learn to play
The Bandit Chords

Leave a Reply

Loading...