Playing God tab by Polyphia

The track was released on the 10th of May 2022, by Polyphia

Playing God tab by Polyphia 1

Track Info

  • Song: Playing God
  • Artist: Polyphia
  • Release Date: May 10, 2022

Key Info 

  • Tuning: Standard [E A D G B e]
  • Key: Em
  • BPM: 137
[Intro:]

0:00
e|------------12------7-|-8---5-7------------12----|-------------5-7-------14-17---|
B|---------12----12-8---|--------------------12----|-4---0-----4-----10------------|
G|---0---9--------------|-----------4---4----------|--------2----------------------|
D|----------------------|--------------------------|--------------------13---------|
A|----------------------|---------3---3------------|-2-----------------------------|
E|---0------------------|-8--8-------------8----0--|-------------------------------|


0:06 e|-----------19-14------0------12--|----7---14-15----7-|--------3-2-0--------12----| B|----10-------------------1-0-12--|--------------10---|-----0--------1---12-------| G|-8---------------8-8-------------|------9------------|-5-------------------------| D|-------13------------------------|-------------------|----------------9----------| A|---------------------------------|-7-----------------|-----2---------------------| E|-7-----------------7-------------|-8-----------------|-3-------------------------|

0:12 e|-------------5-7-------14-17-|-----------------3--2------11--|---------12-------7| B|-----0-----4-----10----------|------5-4----------------------|------12----12-8---| G|-8------2--------------------|--8----------2-4---------2-----|-0--9--------------| D|--------------------13-------|--7--------1-----------1-------|-------------------| A|-----------------------------|-------------------------------|-------------------| E|-7---------------------------|--7--------------3--2----------|-0-----------------|

0:17 e|-8----5-7-------------12--|-------------5-7-------14-17-|----------19-14-----0----12| B|----------------------12--|-4---0-----4-----10---------|----10----------------1-0-12| G|------------4----4--------|--------2-------------------|--8-------------8-8---------| D|--------------------------|--------------------13------|-------13-------------------| A|----------3----3----------|-2--------------------------|----------------------------| E|-8--8---------------8---0-|----------------------------|--7---------------7---------|

0:23 e|----7---14-15----7-|-----------3-2-0----------12-|-------------5-7-------14-17---| B|--------------10---|-------0---------1-----12----|-----0-----4-----10------------| G|------9------------|--5--------------------------|-8------2----------------------| D|-------------------|--------------------9--------|--------------------13---------| A|-7-----------------|-------2---------------------|-------------------------------| E|-8-----------------|--3--------------------------|-7-----------------------------|

0:28 e|---------------3--2------11-|-12--14-15-14-14-12-10-12-10-12-8-12---------------| B|----5-4---------------------|---------------------------------------------------| G|--8--------2-4---------2----|---------------------------------------------------| rD|--7------1-----------1-----|---------------------------------------------------| A|----------------------------|---------------------------------------------------| E|--7------------3--2---------|---------------------------------------------------|
e|---15--8-7-7-8-7-7-8------------------------------------------------------------|
B|-13--12-------------12-11-10-9-8------------------------------------------------|
G|---------------------------------11---------------------------------------------|
D|--------------------------------------------------------------------------------|
A|--------------------------------------------------------------------------------|
E|--------------------------------------------------------------------------------|


0:34 e|--11------------------------------12---------------------------------------------| B|----------------------------------12---------------------------------------------| G|----------------------------------12---------------------------------------------| D|---------------------------------------------------------------------------------| A|---------------------------------------------------------------------------------| E|---------------------------------------------------------------------------------|

Leave a Comment

Your email address will not be published.


Scroll to Top